20121106

JUANES ME ENAMORA TAB (SOLO)


There is a short guitar lesson how to play that guitar solo of Me Enamora by Juanes.
Use the E minor pentatonic scale in different positions.  
TAB helps below.



JUANES ME ENAMORA TAB


e-----------------------------------------------------------------------
B-8(10)---8---5---------------------------------------------------------
G-----------------7-4----------------------4---7---4h7p4----------------
D---------------------7-5~---------5---5-7---------------7-5------------
A----------------------------7-5-7---7-----------------------7-5-7------
E-----------------------------------------------------------------------


e---------------------------------------------------------------10------
B----------------------------8---8--10-10(12)(10)p8---8--10(12)---------
G-------------------7---7-9----9--------------------9-------------------
D--------5---5--7/9---9-------------------------------------------------
A-7-5-7----7------------------------------------------------------------
E-----------------------------------------------------------------------


e--------10--------10--------10-----------------------------------------
B-10(12)----10(12)----10(12)--------------------------------------------
G-----------------------------------------------------------------------
D-----------------------------------------------------------------------
A-----------------------------------------------------------------------
E-----------------------------------------------------------------------



e-15-15p12----12-15-15p12----12-15-15p12----12-15-17-15h17p15p12--------
B----------15-------------15-------------15-----------------------------
G-----------------------------------------------------------------------
D-----------------------------------------------------------------------
A-----------------------------------------------------------------------
E-----------------------------------------------------------------------


e----12-----------------------------------------------------------------
B-15----15-12-15(17)---15-12----12--------------------------------------
G----------------------------14----14-12--------------------------------
D----------------------------------------14~----------------------------
A-----------------------------------------------------------------------
E-----------------------------------------------------------------------


e-----------------------------------------------------------------------
B-----------------------------------------------------------------------
G-12-14-14(16)(14)(16)(14)p12----12-14-14(16)(14)(16)(14)p12------------
D-----------------------------14-----------------------------14---------
A-----------------------------------------------------------------------
E-----------------------------------------------------------------------


e-----------------------------------------------------------------------
B-----------------------------------------------------------------------
G-12-------------------------------------------------------------12~----
D----14-12-14-12--------9---------------------------12----12--14--------
A----------------14--12---12-10-----10-12-10--12/14----14---------------
E--------------------------------12-------------------------------------