20121210

ANDREW DICE CLAY PLAYING THE GUITAR WITH TAB

Do you remember the scene of Adventures of Ford Farlaine when Andrew Dice Clay plays that cool guitar lick by the sea with that white '62 Fender Stratocaster?
If no, there is the video and you'll know immediately. See how to play it then below.




AND THE GUITAR COVER.....


THE FORD FARLAINE GUITAR RIFF TAB


e-----------------------------------------------------------------------
B-5h6-----5---------------5h6---5-------------------------------3-------
G-5-------5---------------5-----5--------5h7p5----5-----------3---------
D---------------------------------------------7-------------3-----------
A-5-------5------------5--------5---------------------5\--1-------------
E-----------------------------------------------------------------------


e-----------------------------------------------------------------------
B--------3---------5----------------------------------------------------
G--------3---------5----------------------------------------------------
D------3---------5------------------------------------------------------
A-0--1-----1---3-----3--------------------------------------------------
E-----------------------------------------------------------------------


e-----------------------------------------------------------------------
B-5h6-----5---------------5h6---5-------------------------------3-------
G-5-------5---------------5-----5--------5h7p5----5-----------3---------
D---------------------------------------------7-------------3-----------
A-5-------5------------5--------5---------------------5\--1-------------
E-----------------------------------------------------------------------