20121224

BILLY MACK CHRISTMAS IS ALL AROUND SOLO TAB


Billy Mack plays an insane guitar solo by 2:30 in Christmas Is All Around.
See the TAB of that guitar solo below.




BILLY MACK CHRISTMAS IS ALL AROUND SOLO TAB

PDF >>

e-----------------------------------------------------------------------
B---------------------20---18~~-----------------------------------------
G-----------17-19(21)--------------17(19)------(19)(17)p15.--17---------
D-----17-19-------------------------------------------------------------
A-/20-------------------------------------------------------------------
E-----------------------------------------------------------------------


e----------17(18)---(17)------------------------------------------------
B-------20---------------20---------------------------------------------
G-17/19---------------------19------------------------------------------
D------------------------------17~~-------\\----------------------------
A-----------------------------------------------------------------------
E-----------------------------------------------------------------------


e-----------------------------------18----------------------------------
B----------16----18(20)------18(20)----(20)(18)-------------------------
G-------15----15--------------------------------------------------------
D-15/17-----------------------------------------------------------------
A-----------------------------------------------------------------------
E-----------------------------------------------------------------------



e-----------------------------------------------------------------------
B-(20)(18)-17-----------------------------------------------------------
G-------------17-------17~~~~~~~~---\\----------------------------------
D----------------17~~--------17~~---\\----------------------------------
A-----------------------------------------------------------------------
E-----------------------------------------------------------------------


e--------------------18------18(20)------(18)~~~~~~---------------------
B--------15----18-------------------------------------------------------
G-----------15----15----------------------------------------------------
D-----15----------------------------------------------------------------
A-/13-------------------------------------------------------------------
E-----------------------------------------------------------------------


e-15h18p15------15------------------------------------------------------
B----------18---------------15------------------------------------------
G--------------------17(19)------(19)(17)p15------15--------------------
D--------------------------------------------17-------------------------
A----------------------------------------------------17~~--\\-----------
E-----------------------------------------------------------------------


e-----------------------------------------------------------------------
B-------------------------------------------------------18--------------
G-------------------------------------15'---17-18-18/19----19-17~~~-----
D-------------------------15----15-17-----------------------------------
A-/14----14---15-14-15-17----17-----------------------------------------
E-----15----x-----------------------------------------------------------


e-------15----------------------------15-18p15-18(20)--18(20)~~~~~\\----
B-15/17----18-17---------------18(20)-----------------------------------
G----------------17~~~~-------------------------------------------------
D-----------------------------------------------------------------------
A-----------------------------------------------------------------------
E-----------------------------------------------------------------------