20121224

BILLY MACK CHRISTMAS IS ALL AROUND SOLO TAB


Insane guitar solo by 2:15 in Billy Mack - Christmas Is All Around
Download the TAB of that guitar solo below




BILLY MACK CHRISTMAS IS ALL AROUND SOLO TAB

GP5 + GP6 + PDF >> 

e-----------------------15---13~----------------------------------------
B-----------13-15(17)-----------------13(15)------(15)(13)p11.--13------
G------12-14------------------------------------------------------------
D---/15-----------------------------------------------------------------
A-----------------------------------------------------------------------
E-----------------------------------------------------------------------


e------15-17(18)-----(17)p15--------------------------------------------
B---/15---------------------15------------------------------------------
G-----------------------------------------------------------------------
D-----------------------------17~~-------\\-----------------------------
A-----------------------------------------------------------------------
E-----------------------------------------------------------------------


e-----------------------------------18----------------------------------
B----------16--18(20)------18(20)--------(20)---(18)--------------------
G--------15--15---------------------------------------------------------
D---15/17---------------------------------------------------------------
A-----------------------------------------------------------------------
E-----------------------------------------------------------------------



e-----------------------------------------------------------------------
B---(20)(18)-17---------------------------------------------------------
G--------------17------17~----------------------------------------------
D----------------17~---------17~-------\--------------------------------
A-----------------------------------------------------------------------
E-----------------------------------------------------------------------


e-----------------18---18(20)---(18)~-----------------------------------
B---------15--18--------------------------------------------------------
G-----------15--15------------------------------------------------------
D-------x---------------------------------------------------------------
A---/13-----------------------------------------------------------------
E-----------------------------------------------------------------------


e---15h18p15--15--------------------------------------------------------
B-----------18--------18------------------------------------------------
G---------------17(19)--17(19)(17)p15--15-------------------------------
D------------------------------------17---------------------------------
A----------------------------------------17~------------\\--------------
E-----------------------------------------------------------------------


e--------------------------------------------------13-------------------
B--------------------------------11(12)---13-14-/15--15p13~-------------
G-----------------------10--10-12---------------------------------------
D---------9---10-9-10-12--12--------------------------------------------
A---/10-x---x-----------------------------------------------------------
E-----------------------------------------------------------------------


e--------15-------------------------------------------------------------
B---15/17--18-17--------------------------------------------------------
G---------------17~-----------------------------------------------------
D-----------------------------------------------------------------------
A-----------------------------------------------------------------------
E-----------------------------------------------------------------------


e---------15-18p15-18(20)---18(20)~-----------\-------------------------
B---18(20)--------------------------------------------------------------
G-----------------------------------------------------------------------
D-----------------------------------------------------------------------
A-----------------------------------------------------------------------
E-----------------------------------------------------------------------





DOWNLOAD THIS SOLO TAB IN GUITAR PRO



  • click 'Free Download'
  • add your e-mail address
  • you will get an e-mail with your download links (in a few seconds)
  • download the Guitar Pro 6 tab + GP5 + PDF for free
  • and that's all ...


Guitar Pro: a complete workshop for guitarists at an affordable price