20130102

MR BIG TO BE WITH YOU SOLO TAB


Benji Bartlett shows us how to play the guitar solo of Mr Big - To Be With You.
Be careful with the slides and the natural harmonies at the end.
TAB helps below.
 


MR BIG TO BE WITH YOU SOLO TAB


e-----------------------------------------------------------------------
B-------------5---------------------------------------------------------
G-1---2---4-------6-------4.-------2/4-------4------4-------\-----------
D-2---4---6-------7-------7.-------2/4-------4h6.---4h6-----\-----------
A-----------------------------------------------------------------------
E-----------------------------------------------------------------------


e-----------------------------------------------------------------------
B-----------------------------------------------------------------------
G-----------------------------------------------------------------------
D-----------------------------------------------------------------------
A-----2h4p2h4.----------------------------------------------------------
E-2h4-------------------------------------------------------------------


e-------------------------4.-------2h4p2p0--0.---0----------------------
B-------------5-----------5.--------------0------0----------------------
G-1---2---4-------6-----------------------------------------------------
D-2---4---6-------7-----------------------------------------------------
A-----------------------------------------------------------------------
E---------------------------------------------------------0-------------


e-----------------------------------------------------------------------
B-------------5--------------------5/7-------9.----9--------------------
G-1---2---4-------6-------4.-------6/8-------9.----9--------------------
D-2---4---6-------7-------7.-------7/9-------11.---11-------------------
A-----------------------------------------------------------------------
E-----------------------------------------------------------------------


e-----------------------------------------------------------------------
B-------------12---10---------------------------------------------------
G-----------9----9------------------------------------------------------
D------9h11-------------------------------------------------------------
A-9/11------------------------------------------------------------------
E-----------------------------------------------------------------------


e----------------------------4.------2h4p2p0--0.---<12>-----------------
B-9---10---12\---------------5.-------------0------<12>-----------------
G----------------/9--------------------------------------11/13----------
D---------------------11\-----------------------------------------------
A-----------------------------------------------------------------------
E-----------------------------------------------------------------------