20130205

STING FRAGILE TAB


There is a short guitar lesson how to play Sting - Fragile on guitar. 
See the TAB under the video.




STING FRAGILE TAB

PDF >>

Intro

e------7p5-7----------7p5-7---7p5-7---7p5-------------------------------
B---5---------------5---------------------------------------------------
G-----------------------------------------------------------------------
D-----------------------------------------------------------------------
A-----------------------------------------------------------------------
E-----------------------------------------------------------------------


e-----7p5-7-----------7p5-7---7p5-5h7-----------------------------------
B---5---------------5---------------------------------------------------
G-----------------------------------------------------------------------
D-----------------------------------------------------------------------
A-----------------------------------------------------------------------
E-----------------------------------------------------------------------


Verse

e-----------------------------------------------------------------------
B---12--------10.---8---8.--12---12.-----8--------7.--5---5.--8---8.----
G-----------------------------------------------------------------------
D---12------10------9---9.--12---12.-----9------7-----5---5.--9---9.----
A--------------------------------------0------0-------------------------
E---0-----0-------------------------------------------------------------



e-----------------------------------------------------------------------
B------8--------7.--5---5.--4---4.-----7--------5.--8---8.------12~-----
G-----------------------------------------------------------------------
D------9------7-----5---5.--4---4.-----7------5-----9---9.----12--------
A-----------------------------------------------------------------------
E---7-------7------------------------0------0---------------0-----------


e-----------------------------------------------------------------------
B-----12------10.---8---8.--12---12.-----8--------7.--5---5.--8---8.----
G-----------------------------------------------------------------------
D-----12-----10-----9---9.--12---12.-----9------7-----5---5.--9---9.----
A--------------------------------------0------0-------------------------
E---0------0------------------------------------------------------------


e-----------------------------------------------------------------------
B------8--------7.--5---5.--4---4.-----7--------8.--5-------------------
G-----------------------------------------------------------------------
D------9------7-----5---5.--4---4.-----7------9-----5-------------------
A-----------------------------------------------------------------------
E---7-------7------------------------0------0---------------------------


Chorus

e-----------------------------------------------------------------------
B---10---------8.--10-----------8.---8---------7.--8-----------7.-------
G-----------------------------------------------------------------------
D---10-------9-----10---------9------9-------7-----9---------7----------
A-----------------------------------------------------------------------
E---8----x-8-----x-8------x-8--------7---x-7-----x-7-----x-7------------


e-----------------------------------------------------------------------
B---8---------7.--5---5-----5.--7.--8---------7.--5---5---7.--8---------
G-----------------------------------------------------------------------
D---9-------7-----5---5-----5.--7.--9-------7-----5---5---7.--9---------
A-----------------------------------------------------------------------
E---0---x-0-----x---0-----0---------0---x-0-----x---0-------------------


e-----------------------------------------------------------------------
B---10---------8.--10-----------10.--8---------7.--8-----------7.-------
G-----------------------------------------------------------------------
D---10-------9-----10---------10-----9-------7-----9---------7----------
A-----------------------------------------------------------------------
E---8----x-8-----x-8------x-8--------7---x-7-----x-7-----x-7------------


e-----------------------------------------------------------------------
B---8---------7.--5---5-----5.--7.--8---------7.--5---------------------
G-----------------------------------------------------------------------
D---9-------7-----5---5-----5.--7.--9-------7-----5---------------------
A-----------------------------------------------------------------------
E---0---x-0-----x---0-----0---------0---x-0-----x---0-------------------



SOLO TAB OF THE ALBUM VERSION (NOT INCLUDED IN THE LESSON)

SOLO

e-----7p5-7~----------------7p5-7-8-10-7~~------------------------------
B-5---------------------5-----------------------------------------------
G-----------------------------------------------------------------------
D-----------------------------------------------------------------------
A-----------------------------------------------------------------------
E-----------------------------------------------------------------------


e-----------------------------------------7-8-10-7-8----7---------------
B-8---5-7-8---5-7---------5------5-7-8-10------------10---8--10-10/12~--
G-----------------------------------------------------------------------
D-----------------------------------------------------------------------
A-----------------------------------------------------------------------
E-----------------------------------------------------------------------


e------12---14.---15~------14-12~-----------14.--15.--14---12\11--------
B-12---------------------------------------------------------------12~--
G-----------------------------------------------------------------------
D-----------------------------------------------------------------------
A-----------------------------------------------------------------------
E-----------------------------------------------------------------------


e-12p11----12---\------12-\------12~--\---------------------------------
B-------12--------------------------------------------------------------
G-----------------------------------------------------------------------
D-----------------------------------------------------------------------
A-----------------------------------------------------------------------
E-----------------------------------------------------------------------


e-----------------------------------------------------------------------
B-12p10-12-13.------8---p7---7.---8-10-12p10----------------------------
G--------------------------9-----------------12-11h12~------------------
D-----------------------------------------------------------------------
A-----------------------------------------------------------------------
E-----------------------------------------------------------------------


e-----------------------------------------------------------------------
B---------------10~---10~--------------------8-7------7h8p7\5~----------
G-9---11---12------------------------------9----------------------------
D----------------------------------------9-----------------------------
A-----------------------------------------------------------------------
E-----------------------------------------------------------------------


e-----7p5-7---8p7------8---8--8\7---7---5---5\3-3-3-3\2-2---2-----------
B-5---------------------------------------------------------------------
G-----------------------------------------------------------------------
D---------------------10--10-10\9---9---7---7\5-5-5-5\4---4-------------
A-----------------------------------------------------------------------
E-----------------------------------------------------------------------


e---7-5-7-8p7~---5------------------------------------------------------
B-5----------------8-7~---8-7~---8-7~---8-7~---5~-----------------------
G-----------------------------------------------------------------------
D-----------------------------------------------------------------------
A-----------------------------------------------------------------------
E-----------------------------------------------------------------------