20130326

BOB MARLEY CONCRETE JUNGLE SOLO TAB AND LESSON

Kiko Peres shows us how to play the guitar solo of Concrete Jungle by Bob Marley.
The solo is played along with the original record, then once again but a bit slower.
TAB helps below.



BOB MARLEY CONCRETE JUNGLE SOLO TAB

PDF >>

e-----------------------------------------------------------------------
B-----8---------------------------7h8p7---7---7h8p7---------------------
G-----------9------6h7-7/9~-------------9---9-------9---7~--------------
D-7h9-------------------------------------------------------------------
A-----------------------------------------------------------------------
E-----------------------------------------------------------------------


e-----------------------------------------------------------------------
B-----------------------------------------------------------------------
G-7/9-9/11-11~-----11h12p11h12p11h12-12/14~-----14(16)~~~---------------
D-----------------------------------------------------------------------
A-----------------------------------------------------------------------
E-----------------------------------------------------------------------


e-----------------------------------------------------------------------
B-----------------------------------------------------------------------
G-14(16)(14)---14(16)~~~~------14(16)---(14)p12----12---12~~------------
D-----------------------------------------------14----------------------
A-----------------------------------------------------------------------
E-----------------------------------------------------------------------



e----------------------------12-------------12--------------------------
B-------------------------12-------15p12-------15(17)~~~----------------
G-12h14p12----12-14(16)------------------14-----------------------------
D----------14-----------------------------------------------------------
A-----------------------------------------------------------------------
E-----------------------------------------------------------------------


e----------------------------------------------------------17-----------
B-17(19)(17)p15----15-15~--------15-17(18)---(17)p15----15----15~-------
G---------------16------------16---------------------16-----------------
D-----------------------------------------------------------------------
A-----------------------------------------------------------------------
E-----------------------------------------------------------------------


e---------------------------17(19)------17(19)---17(19)(17)p15----15----
B----15-17(19)(17)p15----15------------------------------------17----17~
G-16------------------16------------------------------------------------
D-----------------------------------------------------------------------
A-----------------------------------------------------------------------
E-----------------------------------------------------------------------


e-14-17p14------14-15p14-15p14-15p14-15p14-15~-----14-15p14-------------
B----------15-----------------------------------------------15~--15/17~-
G-----------------------------------------------------------------------
D-----------------------------------------------------------------------
A-----------------------------------------------------------------------
E-----------------------------------------------------------------------


e--------------------------------------------------------17-------------
B-17(19)---(17)p15----15h17~-----15---17---15---17(19)------17(19)------
G------------------16---------------------------------------------------
D-----------------------------------------------------------------------
A-----------------------------------------------------------------------
E-----------------------------------------------------------------------


e-----------------------------------------------17(19)---------15-------
B-17(19)------17(19)~-----17(19)(17)p15----15-----------------------17~-
G---------------------------------------16------------------------------
D-----------------------------------------------------------------------
A-----------------------------------------------------------------------
E-----------------------------------------------------------------------