20130315

DRAGON BALL Z THEME SONG TAB

Chakalaka025 plays here a crazy guitar cover of the DRAGON BALL Z Theme song.
(note that his B string gets mistuned by 1:06)
TAB below.



DRAGON BALL Z THEME SONG TAB

PDF >>

  T      T      T      T      T      T      T      T
e-----------------------------------------------------------------------
B-12p7p5-12p7p5-12p7p5-12p7p5-12p7p5-12p7p5-12p7p5-12p7p5---------------
G-----------------------------------------------------------------------
D-----------------------------------------------------------------------
A-----------------------------------------------------------------------
E-----------------------------------------------------------------------


e-----------------------------------------------------------------------
B-----10---9-----10---9-------------------------------------------------
G-----9----9-9---9----9-------9---9---\7-7.---7-------------------------
D-9-9-9--9-9-9-9-9--9-9-9-9-9-9-9-9---\7-7.---7-------------------------
A-7-7----7-----7----7---7-7-7-7-7-7---\5-5.---5-------------------------
E-----------------------------------------------------------------------
  x x    x     x    x   x x x   x

e-----------------------------------------------------------------------
B-----------------------------------------------------------------------
G---7---7---\5-5.---5---------------------------------------------------
D-7-7-7-7---\5-5.---5---------------------------------------------------
A-5-5-5-5---\3-3.---3---------------------------------------------------
E-----------------------------------------------------------------------
  x   x




e----------------------------------------------12~~---------------------
B-/10---9-----12---12-10.---9h10.---12-12-10-9--------------------------
G---------9-------------------------------------------------------------
D-----------------------------------------------------------------------
A-----------------------------------------------------------------------
E-----------------------------------------------------------------------


e-----------------------------------------------------------------------
B-----------------------------------------------------------------------
G-/9-11-11/12~-----/14~-----/16-16---16-17~-----/19---19-17.--16--------
D----------------------------------------------------------------19.----
A-----------------------------------------------------------------------
E-----------------------------------------------------------------------

  T      T      T      T      T      T
e-----------------------------------------------------------------------
B-12p7p5-12p7p5-12p7p5-12p7p5-12p7p5-12p7p5---h7~-----------------------
G-----------------------------------------------------------------------
D-----------------------------------------------------------------------
A-----------------------------------------------------------------------
E-----------------------------------------------------------------------


e----------------------------------------------12~~-\-----------12------
B-/10---9-----12---12-10.---9h10.---12-12-10-9---------/12-10-9---------
G---------9-------------------------------------------------------------
D-----------------------------------------------------------------------
A-----------------------------------------------------------------------
E-----------------------------------------------------------------------


e-----------------------------------------------------------------------
B-----------------------------------------------------------------------
G-9h11/12~---/14-14~---/16-16.---17.---19---17-17---\16-16~-------------
D-----------------------------------------------------------------------
A-----------------------------------------------------------------------
E-----------------------------------------------------------------------


e-----------------------------------------------------------------------
B-/14~---14---12\9~---12/14~---12h14p12h14p12\10.---9----9h10-10~-------
G-----------------------------------------------------11----------------
D-----------------------------------------------------------------------
A-----------------------------------------------------------------------
E-----------------------------------------------------------------------


e-----------------------------------------------------------------------
B-/9-9~~------------10p9---10---p9--------------------------------------
G-------------/9.--------9---------9-9.---9~----------------------------
D-----------------------------------------------------------------------
A-----------------------------------------------------------------------
E-----------------------------------------------------------------------


e----------------------------------------------------12-10--------------
B-------10p9---10---p9------10/12-12-12~~---------10-------12-10.-------
G-/9.--------9---------9.----------------------11-----------------------
D-----------------------------------------------------------------------
A-----------------------------------------------------------------------
E-----------------------------------------------------------------------


e-----------------------------------------------------------------------
B-----------------------------------------------------------------------
G-/7~------9~------/7---7-9~------11.---12---12-9---12-12---11---9.-----
D-----------------------------------------------------------------------
A-----------------------------------------------------------------------
E-----------------------------------------------------------------------


e-----------------------------------------------------------------------
B-----------------------------------------------------------------------
G-9\7---7~------/12---12-11.---9\7-7-9~~~-------------------------------
D-----------------------------------------------------------------------
A-----------------------------------------------------------------------
E-----------------------------------------------------------------------

  T      T      T      T      T      T
e-----------------------------------------------------------------------
B-12p7p5-12p7p5-12p7p5-12p7p5-12p7p5-12p7p5---h7~-----------------------
G-----------------------------------------------------------------------
D-----------------------------------------------------------------------
A-----------------------------------------------------------------------
E-----------------------------------------------------------------------

                             T
e-----------------------------------------------------------------------
B-3~-----/5~------3---3-5~---7p5------7.---8---8-5---8-8---7---5.-------
G-----------------------------------------------------------------------
D-----------------------------------------------------------------------
A-----------------------------------------------------------------------
E-----------------------------------------------------------------------


e-----------------------------------------------------------------------
B-5\3-3-3-----3-5-5(7)(5)(7)(5)-5(7)~~~---------------------------------
G-----------4-----------------------------------------------------------
D-----------------------------------------------------------------------
A-----------------------------------------------------------------------
E-----------------------------------------------------------------------

                                   T
e-----------------------------------------------------------------------
B-/15------17~------/15---15-17~---19p17---19.---20---20-17-------------
G-----------------------------------------------------------------------
D-----------------------------------------------------------------------
A-----------------------------------------------------------------------
E-----------------------------------------------------------------------


e-----------------------------------------------------------------------
B-20-20---19---17.---17\15-15-15~------/20---20-19---17\15-15-17~-------
G-----------------------------------------------------------------------
D-----------------------------------------------------------------------
A-----------------------------------------------------------------------
E-----------------------------------------------------------------------


e-----------------------------------------------------------------------
B-/17---15h17p15h17p15h17p15h17p15h17p15h17p15h17p15h17p15--------------
G-----------------------------------------------------------------------
D-----------------------------------------------------------------------
A-----------------------------------------------------------------------
E-----------------------------------------------------------------------


e-----------------------------------------------------------------------
B-15------17~------/15---15-17~---19p17---19.---20---20-17--------------
G-----------------------------------------------------------------------
D-----------------------------------------------------------------------
A-----------------------------------------------------------------------
E-----------------------------------------------------------------------


e-----------------------------------------------------------------------
B-20-20---19---17.--17\15-15-15~-----15-17-17(19)(17)(19)(17)-17(19)----
G---------------------------------16------------------------------------
D-----------------------------------------------------------------------
A-----------------------------------------------------------------------
E-----------------------------------------------------------------------


e-----------------------------------------------------------------------
B-17(19)----------------------------------------------------------------
G--------------------------7----------------x-2-------------------------
D--------------------------7----------------x-2-------------------------
A--------------------------5----------------x-0-------------------------
E-----------------------------------------------------------------------


e-----------------------------------------------------------------------
B-----------------------------------------------------------------------
G-x-3-----------------------x-5-----------------------------------------
D-x-3-----------------------x-5-----------------------------------------
A-x-1-----------------------x-3-----------------------------------------
E-----------------------------------------------------------------------


e-----------------------------------------------------------------------
B-10p8p6-10p8p6-10p8p6-10p8p6-10p8p6-10p8p6-10p8p6-10p8p6---------------
G-------------------------------------------------------------7---------
D-------------------------------------------------------------7---------
A-------------------------------------------------------------5---------
E-----------------------------------------------------------------------