20130427

FREE ALRIGHT NOW SOLO TAB AND COVER


Great cover of Free - Alright Now guitar solo.
See the TAB under the video.



FREE ALRIGHT NOW SOLO TAB           

PDF >>

e-----------------------------------------------------------------------
B----13'------13'------13'------15.--13'--------------13'---------------
G-14-------14-------14-------14------------14.---14---------------------
D-----------------------------------------------------------------------
A-----------------------------------------------------------------------
E-----------------------------------------------------------------------


e-----------------------------------------------------------------------
B-15(17)------(15)p13-15~------13---------------------------------------
G---------------------------------14---14~---\--------------------------
D-----------------------------------------------------------------------
A-----------------------------------------------------------------------
E-----------------------------------------------------------------------



e-----------------------------------------------------------------------
B----13'------13'------13'------13.--13'--------------13'---------------
G-14-------14-------14-------14------------14.---14---------------------
D-----------------------------------------------------------------------
A-----------------------------------------------------------------------
E-----------------------------------------------------------------------


e----------------------------------------------------15(17)~------------
B-15(17)------(15)p13-15(17)~------17(20)---13--------------------------
G----------------------------------------------14~----------------------
D-----------------------------------------------------------------------
A-----------------------------------------------------------------------
E-----------------------------------------------------------------------


e-----------------------------------------------------------------------
B-----------------------------------------------------------------------
G-0h2~--------2/4~--------2--/4------4--\2~-----------------------------
D-----------------------------------------------------------------------
A-----------------------------------------------------------------------
E-----------------------------------------------------------------------


e-----------------------------------------------------------------------
B----------------------------------3/5------5--/7------7--\5~-----------
G-2--/4~--------4--\2~--------------------------------------------------
D-----------------------------------------------------------------------
A-----------------------------------------------------------------------
E-----------------------------------------------------------------------


e----------------------------------------5------------------------------
B-5~-------5--/7~-----7--\5~-----------------------------------/10~-----
G----------------------------------2/4-------4(5)(4)-2~-----------------
D-----------------------------------------------------------------------
A-----------------------------------------------------------------------
E-----------------------------------------------------------------------


e-----------------------------------------------------------------------
B-10------10------10------10------10---12(14)~--------------------------
G----9h11----9h11----9h11----9h11---------------------------------------
D-----------------------------------------------------------------------
A-----------------------------------------------------------------------
E-----------------------------------------------------------------------


e-----------------------------------------------------------------------
B------10------10------10------10------10---12(14)~---------------------
G-9h11----9h11----9h11----9h11----9h11----------------------------------
D-----------------------------------------------------------------------
A-----------------------------------------------------------------------
E-----------------------------------------------------------------------


e-----------------------------------------------------------------------
B-12(14)---------(12)-10---------10~------------------------------------
G-----------------------------11----------------------------------------
D-----------------------------------------------------------------------
A-----------------------------------------------------------------------
E-----------------------------------------------------------------------


e-0---------------------------------------------------------------------
B-12(14)---------(12)-10---------10~------------------------------------
G-----------------------------11----------------------------------------
D-----------------------------------------------------------------------
A-----------------------------------------------------------------------
E-----------------------------------------------------------------------


e-0---------------------------------------------------------------------
B-12(14)---------(12)-10---------10~------------------------------------
G-----------------------------11----------------------------------------
D-----------------------------------------------------------------------
A-----------------------------------------------------------------------
E-----------------------------------------------------------------------


e-------17-------17-------17-------17-------17--------------------------
B-17h20----17h20----17h20----17h20----17h20------20(22)~~~--------------
G-----------------------------------------------------------------------
D-----------------------------------------------------------------------
A-----------------------------------------------------------------------
E-----------------------------------------------------------------------


e-17----20(22)---------(20)p17-20.---------------17---------------------
B----17------------------------------20(22)~--------20(22)~-------------
G-----------------------------------------------------------------------
D-----------------------------------------------------------------------
A-----------------------------------------------------------------------
E-----------------------------------------------------------------------


e-17---------17-------17-------17-------17-------17----------------17---
B------17h20----17h20----17h20----17h20----17h20------20(22)~~~---------
G-----------------------------------------------------------------------
D-----------------------------------------------------------------------
A-----------------------------------------------------------------------
E-----------------------------------------------------------------------


e-17----20(22)------20(22)------(22)(20)p17-20.--------------------17.--
B----17-------------------------------------------20(22)~~~~------------
G-----------------------------------------------------------------------
D-----------------------------------------------------------------------
A-----------------------------------------------------------------------
E-----------------------------------------------------------------------


e-----------------------------------------------------------------------
B-20(22)------(20)-19~------17~-----------------------------------------
G-----------------------------------------------------------------------
D-----------------------------------------------------------------------
A-----------------------------------------------------------------------
E-----------------------------------------------------------------------