20130403

U2 HOLD ME THRILL ME KISS ME KILL ME TAB AND COVER


There is a cool cover of U2 - Hold Me Thrill Me Kiss Me Kill Me played by Norkettube.
He uses half step down tuning.
See the TAB under the video.


U2 HOLD ME THRILL ME KISS ME KILL ME TAB                     

PDF >>

Riff 1

eb----------------------------------------------------------------------
Bb----------------------------------------------------------------x-----
Gb----------------------------------------------------------------x-----
Db----------------------------------------------------------------x-----
Ab----------------------------------------------------------------------
Eb-12p0---12p0---12p0---12p0---12p0---12p0---12p0---12p0---12p0---------


Riff 2

eb----------------------------------------------------------------------
Bb----------------------------------------------------------------------
Gb-x-x-9---x-7---x-4---------------x-x-9---x-7---x-4--------------------
Db-x-x-9---x-7---x-4---x-5-5---5---x-x-9---x-7---x-4---x-5-5---5--------
Ab-x-x-7---x-5---x-2---x-5-5---5---x-x-7---x-5---x-2---x-5-5---5--------
Eb---------------------x-3-3---3-----------------------x-3-3---3--------


eb----------------------------------------------------------------------
Bb----------------------------------------------------------------------
Gb-x-x-9---x-7---x-4---------------x-x-9---x-7---x-4--------------------
Db-x-x-9---x-7---x-4---x-5-5---5---x-x-9---x-7---x-4---x-3-3---3---3----
Ab-x-x-7---x-5---x-2---x-5-5---5---x-x-7---x-5---x-2---x-3-3---3---3----
Eb---------------------x-3-3---3-----------------------x-1-1---1---1----



Riff 3

eb----------------------------------------------------------------------
Bb----------------------------------------------------------------------
Gb----------------------------------------------------------------------
Db----------------------------------------------------  6x  ------------
Ab----------------------------------------------------------------------
Eb-0---12p0-10h12-----12-10h12-12-12---12-10h12-------------------------


eb-0---0-0-0-0-0-----0-0-0-0---0-0--------------------------------------
Bb-0---0-0-0-0-0-----0-0-0-0---0-0-0---0-0-0-0-0-----0-0-0-0---0-0------
Gb-2---2-2-2-2-2-----2-2-2-2---2-2-0---0-0-0-0-0-----0-0-0-0---0-0------
Db-2---2-2-2-2-2-----2-2-2-2---2-2-0---0-0-0-0-0-----0-0-0-0---0-0------
Ab-0---0-0-0-0-0-----0-0-0-0---0-0-2---2-2-2-2-2-----2-2-2-2---2-2------
Eb---------------------------------3---3-3-3-3-3-----3-3-3-3---3-3------


eb----------------------------------------------------------------------
Bb----------------------------------------------------------------------
Gb----------------------------------------------------------------------
Db----------------------------------------------------  6x  ------------
Ab----------------------------------------------------------------------
Eb-0---12p0-10h12-----12-10h12-12-12---12-10h12-------------------------


eb-0---0-0-0-0-0-----0-0-0-0---0-0--------------------------------------
Bb-0---0-0-0-0-0-----0-0-0-0---0-0-0---0-0-0-0-0-----0-0-0-0---0-0------
Gb-2---2-2-2-2-2-----2-2-2-2---2-2-0---0-0-0-0-0-----0-0-0-0---0-0------
Db-2---2-2-2-2-2-----2-2-2-2---2-2-0---0-0-0-0-0-----0-0-0-0---0-0------
Ab-0---0-0-0-0-0-----0-0-0-0---0-0-2---2-2-2-2-2-----2-2-2-2---2-2------
Eb---------------------------------3---3-3-3-3-3-----3-3-3-3---3-3------


eb----------------------------------------------------------------------
Bb----------------------------------------------------------------------
Gb----------------------------------------------------------------------
Db-2---2-2-2-2-2-----2-2-2-2---2-2-2---2-2-2-2-2-----2-2-2-2---2-2------
Ab-2---2-2-2-2-2-----2-2-2-2---2-2-2---2-2-2-2-2-----2-2-2-2---2-2------
Eb-0---0-0-0-0-0-----0-0-0-0---0-0-0---0-0-0-0-0-----0-0-0-0---0-0------


Riff 4

eb----------------------------------------------------------------------
Bb----------------------------------------------------------------------
Gb-9---8---6-8-----9-----5---7---5-5-----4------------------   4x  -----
Db----------------------------------------------------------------------
Ab----------------------------------------------------------------------
Eb----------------------------------------------------------------------


The end

eb----------------------------------------------------------------------
Bb----------------------------------------------------------------------
Gb-x-x-9---x-7---x-4---------------x-x-9---x-7---x-4--------------------
Db-x-x-9---x-7---x-4---x-3-3---5---x-x-9---x-7---x-4---x-3-3---3---3----
Ab-x-x-7---x-5---x-2---x-3-3---5---x-x-7---x-5---x-2---x-3-3---3---3----
Eb---------------------x-1-1---3-----------------------x-1-1---1---1----
 


Note that he plays sometimes a different than "Riff 1" and at "The end" part is played many times.