20130507

FOOL'S GARDEN LEMON TREE TAB (ACOUSTIC LIVE)

Acoustic version of Fool's Garden - Lemon Tree.
Only two guitars and 4 funny guys (two from Fools Garden and the others on the edge are from Skamp) made this song better than the original version. The magic of live music. TAB below.


FOOL'S GARDEN LEMON TREE TAB

PDF >>

Intro

   Em             Bm              Em              Bm

e-----7.------7.------7.------7.------7.------7.------7.----------------
B-----8.------8.------7.------7.------8.------8.------7.----------------
G-----9.------9.------7.------7.------9.------9.------7.----------------
D-----9.------9.------9.------9.------9.------9.------9.----------------
A-7-------7-----------9.------9.--7-------7-----------9.----------------
E-----------------7-------7-----------------------7-------7---6---------

  Am              Bm              Em

e-----5.------5.------7.------7.------7.--------------------------------
B-----5.------5.------7.------7.------8.------------------------12\-----
G-----5.------5.------7.------7.------9.------------------------12\-----
D-----7.------7.------9.------9.------9.-----------7------------12\-----
A-----7.------7.------9.------9.--7-------7---10------------------------
E-5-------5-------7-------7---------------------------------------------



Verse

  Em              Bm              Em              Bm

e-----7.------7.------7.------7.------7.------7.------7.------7.--------
B-----8.------8.------7.------7.------8.------8.------7.------7.--------
G-----9.------9.------7.------7.------9.------9.------7.------7.--------
D-----9.------9.------9.------9.------9.------9.------9.------9.--------
A-7-------7-----------9.------9.--7-------7-----------9.------9.--------
E-----------------7-------7-----------------------7-------7-------------

  Em              Bm              Em              Bm

e-----7.------7.------7.------7.------7.------7.------7.----------------
B-----8.------8.------7.------7.------8.------8.------7.----------------
G-----9.------9.------7.------7.------9.------9.------7.----------------
D-----9.------9.------9.------9.------9.------9.------9.----------------
A-7-------7-----------9.------9.--7-------7-----------9.----------------
E-----------------7-------7-----------------------7-------7---6---------

  Am              Bm              Em

e-----5.------5.------7.------7.------7.--------------------------------
B-----5.------5.------7.------7.------8.--------------------------------
G-----5.------5.------7.------7.------9.--------------------------------
D-----7.------7.------9.------9.------9.-----------7--------------------
A-----7.------7.------9.------9.--7-------7---10------------------------
E-5-------5-------7-------7---------------------------------------------


Chorus

  G               D               Em              Bm

e-3---------------2---------------0---------------2---------------------
B-3---------------3---------------0---------------3---------------------
G-0---------------2---------------0---------------4---------------------
D-0---------------0---------------2---------------4---------------------
A-2-------------------------------2---------------2---------------------
E-3-------------------------------0-------------------------------------

  C               D               G               D

e-0---------------2---------------3-------------------------------------
B-1---------------3---------------3---------------3---------------------
G-0---------------2---------------0---------------2---------------------
D-2---------------0---------------0---------------0--0------------------
A-3-------------------------------2--------------------3--3-2--2-0--0---
E-3-------------------------------3-------------------------------------

  G               D               Em              Bm

e-3---------------2---------------0---------------2---------------------
B-3---------------3---------------0---------------3---------------------
G-0---------------2---------------0---------------4---------------------
D-0---------------0---------------2---------------4---------------------
A-2-------------------------------2---------------2---------------------
E-3-------------------------------0-------------------------------------

  C               A7              D

e-0---------------0---------------2-------------------------------------
B-1---------------2---------------3-------------------------------------
G-0---------------0---------------2-------------------------------------
D-2---------------2---------------0-------------------------------------
A-3---------------0-----------------------------------------------------
E-3---------------------------------------------------------------------


Bridge

e-----------------------------------------------------------------------
B-----------------------------------------------------------------------
G-----------------------------------------------------------------------
D-----------------------------------------------------------------------
A-2-1-2-3-2-0-1---------------------------------------------------------
E-----------------------------------------------------------------------

  B7                              Em

e-2-------------------------------0-------------------------------------
B-0-------------------------------0-------------------------------------
G-2-------------------------------0-------------------------------------
D-1-------------------------------2-------------------------------------
A-2-------------------------------2-----------------2-1-2-3-2-1-2-------
E---------------------------------0-------------------------------------

  D7                              G               B7

e-2-------------------------------3---------------7---------------------
B-1-------------------------------0---------------7---------------------
G-2-------------------------------0---------------8---------------------
D-0-------------------------------0---------------7---------------------
A-0-------------------------------2---------------9---------------------
E---------------------------------3---------------7---------------------
 


Strumming pattern:

Chorus:          down   down-up   up-down   up

Bridge:           down   down-up   up-down   up