20130630

BUDDY HOLLY HEARTBEAT TAB

Ric Tester makes here a clear lesson how to play the different guitar parts of Buddy Holly Heartbeat. He uses a Fender Telecaster with clean sound.
TAB of this cool lesson helps below.



BUDDY HOLLY HEARTBEAT TAB

PDF >>

Part 1

e-12-12.----12-14.----12.----10-10.----10-12.----10.--------------------
B-14-14.----14-15.----14.----12-12.----12-14.----12.--------------------
G-----------------------------------------------------------------------
D-----------------------------------------------------------------------
A-----------------------------------------------------------------------
E-----------------------------------------------------------------------


e-12-12.----12-14.----12.----10-10.----10-12.----10.--------------------
B-14-14.----14-15.----14.----12-12.----12-14.----12.--------------------
G-----------------------------------------------------------------------
D-----------------------------------------------------------------------
A-----------------------------------------------------------------------
E-----------------------------------------------------------------------



Part 2

e-----------------------------------------------------------------------
B-------7---5---7---5-------5---------7---5---7---5-------5-------------
G------6----------------6------------6----------------6-----------------
D-7---7-------------------------7---7-----------------------------------
A-----------------------------------------------------------------------
E-----------------------------------------------------------------------


e-----------------------------------------------------------------------
B----------12---10---12---10--------10----------------------------------
G--------11--------------------11---------------------------------------
D-12---12---------------------------------------------------------------
A-----------------------------------------------------------------------
E-----------------------------------------------------------------------


e-----------------------------------------------------------------------
B----------14---12---14---12--------12----------------------------------
G--------13--------------------13---------------------------------------
D-14---14---------------------------------------------------------------
A-----------------------------------------------------------------------
E-----------------------------------------------------------------------



Part 3

e-----------------------------------------------------------------------
B-5-5.---5-7.---5.---3-3.---3-5.---3.-----------------------------------
G-6-6.---6-7.---6.---4-4.---4-6.---4.-----------------------------------
D-----------------------------------------------------------------------
A-----------------------------------------------------------------------
E-----------------------------------------------------------------------


e-----------------------------------------------------------------------
B-5-5.---5-7.---5.---3-3.---3-5.---3.-----------------------------------
G-6-6.---6-7.---6.---4-4.---4-6.---4.-----------------------------------
D-----------------------------------------------------------------------
A-----------------------------------------------------------------------
E-----------------------------------------------------------------------


Part 4

e---------------------------10.---12.---14------14---14.----------------
B-14.-----14~---------14.---12.---14.---15------15---15.----------------
G-14.-----14~---------14.-----------------------------------------------
D-----------------------------------------------------------------------
A-----------------------------------------------------------------------
E-----------------------------------------------------------------------


e-12-12.---12-10.---10.-------------------------------------------------
B-14-14.---14-12.---12.-------------------------------------------------
G-----------------------------------------------------------------------
D-----------------------------------------------------------------------
A-----------------------------------------------------------------------
E-----------------------------------------------------------------------


e-12-12.----12-14.----12.----10-10.----10-12.----10.--------------------
B-14-14.----14-15.----14.----12-12.----12-14.----12.--------------------
G-----------------------------------------------------------------------
D-----------------------------------------------------------------------
A-----------------------------------------------------------------------
E-----------------------------------------------------------------------


e-12-12.----12-14.----12.----10-10.----10-12.----10.--------------------
B-14-14.----14-15.----14.----12-12.----12-14.----12.--------------------
G-----------------------------------------------------------------------
D-----------------------------------------------------------------------
A-----------------------------------------------------------------------
E-----------------------------------------------------------------------


Part 5

e-----------------------------------------------------------------------
B-7.-----7.--------7.-----7.-----7.-----5.-----5.-----------------------
G-7.-----7.--------7.-----7.-----7.-----6.-----6.-----------------------
D-7.-----7.--------7.-----7.-----7.-----7.-----7.-----------------------
A-----------------------------------------------------------------------
E-----------------------------------------------------------------------


e-----------------------------------------------------------------------
B-14.-----12.-----10.-----9.-----9.-----9.-----7.-----7.-----7.---------
G-14.-----13.-----11.-----9.-----9.-----9.-----7.-----7.-----7.---------
D-14.-----14.-----12.-----9.-----9.-----9.-----7.-----7.-----7.---------
A-----------------------------------------------------------------------
E-----------------------------------------------------------------------


e-----------------------------------------------------------------------
B-5.-----5---7-5.---5.-----5---5-5.-------------------------------------
G-6.-----6---6-6.---4.-----4---6-4.-------------------------------------
D-7.-----7----------6.-----6--------------------------------------------
A-----------------------------------------------------------------------
E-----------------------------------------------------------------------


Part 6

e-12-12.----12-14.----12.----10-10.----10-12.----10.--------------------
B-14-14.----14-15.----14.----12-12.----12-14.----12.--------------------
G-----------------------------------------------------------------------
D-----------------------------------------------------------------------
A-----------------------------------------------------------------------
E-----------------------------------------------------------------------


e-12-12.----12-14.----12.----10-10.----10-12.----12~--------------------
B-14-14.----14-15.----14.----12-12.----12-14.----12~--------------------
G------------------------------------------------11~--------------------
D------------------------------------------------11~--------------------
A-----------------------------------------------------------------------
E-----------------------------------------------------------------------