20130603

CRAIG DAVID UNBELIEVABLE TAB (INSTRUMENTAL)


Here is short video how to play Craig David - Unbelievable with a single acoustic guitar.
This lesson is made according to the instrumental version on YouTube (the original song is a bit faster) CAPO on the 1st fret, see the TAB under the video.



CRAIG DAVID UNBELIEVABLE TAB

PDF >>

Intro   ( 3 times )

e----------4-----------------------4------------------------------------
B-----------------------------------------------------------------------
G-------1-----------------------1---------------------------------------
D----3-----------------------3------------------------------------------
A-4-----------------------1---------------------------------------------
E-----------------------------------------------------------------------


e----------4-----------------------4------------------------------------
B-------------------------------2---------------------------------------
G-------1--------------------1------------------------------------------
D----1--------------------4---------------------------------------------
A-----------------------------------------------------------------------
E-4---------------------------------------------------------------------



Part 2

e-----------------------------------------------------------------------
B-4/6-----3-----2------------2p1---1---h2-2-----------------------------
G-1h3-----1-----1------------1---3--------1-----------------------------
D---------------3------------3------------------------------------------
A-----------------------------------------------------------------------
E-----------------------------------------------------------------------

Part 3   ( 4 times )

e-------4---------------4---------------4---------------4---------------
B-----------2---------------2---------------2---------2-----2-----------
G-----1---------1-----1---------1-----1---------1---1-----------1-------
D---3---------------3---------------1-------------4-----------4---------
A-4---------------1-----------------------------------------------------
E---------------------------------4-------------------------------------

then

e-----------------------------------------------------------------------
B-4/6-----3-----2-------------------------------------------------------
G-1h3-----1-----1-------------------------------------------------------
D---------------3-------------------------------------------------------
A-----------------------------------------------------------------------
E-----------------------------------------------------------------------


Part 4    ( 3 times )

e-------1---------------1---------------4---------------2---------------
B-------2---------------2---------------4---------------2---------------
G-----1-------1-------3-------3-1-----1---------1-----3---------1-------
D---3-----------3---3---------------1---------1-----4---------4---------
A-4---------------1-----------------------------------------------------
E---------------------------------4---------------2---------------------

then

e-----------------------------------------------------------------------
B-4/6-----3-----2------------2p1---1---h2-2-----------------------------
G-1h3-----1-----1------------1---3--------1-----------------------------
D---------------3------------3------------------------------------------
A-----------------------------------------------------------------------
E-----------------------------------------------------------------------


Part 5 = Part 3    ( 4 times )

then

e-----------------------------------------------------------------------
B-4/6-----3-----2-------------------------------------------------------
G-1h3-----1-----1-------------------------------------------------------
D---------------3-------------------------------------------------------
A-----------------------------------------------------------------------
E-----------------------------------------------------------------------


Part 6

e-------2---------------4---------------1---------------2---------------
B-----4-----4---------4-----4---------------2---------2-----2-----------
G---3-----------3---1-----------1-----1---------1---3-----------1-------
D-1---------------------------------3-------------4---------------------
A---------------------------------4-------------------------------------
E-----------------4-----------------------------------------------------


e-------2---------------4-----------------------------------------------
B-----4-----4---------4-------------------------------------------------
G---3-----------3---1---------------------------------------------------
D-1---------------------------------------------------------------------
A-----------------------------------------------------------------------
E-----------------4-----------------------------------------------------


Solo

e-----------------------------------------------------------------------
B----14-14~-----14-14~-----14-14~---13~---------------------------------
G-13---------13---------13----------------------------------------------
D-----------------------------------------------------------------------
A-----------------------------------------------------------------------
E-----------------------------------------------------------------------


e-----------------------------------------------------------------------
B-9/11---9--------------------------------------------------------------
G------------10---h11-10h11-10~-----------------------------------------
D-----------------------------------------------------------------------
A-----------------------------------------------------------------------
E-----------------------------------------------------------------------


e-----------------------------------------------------------------------
B-------14-14~-----14-14~-----14-14~--14/16-13~---\---------------------
G-10/13---------13---------13-------------------------------------------
D-----------------------------------------------------------------------
A-----------------------------------------------------------------------
E-----------------------------------------------------------------------


Part 3
till the end

And finally
Part 2