20130606

R.E.M. SHINY HAPPY PEOPLE TAB (ACOUSTIC)

Cool unplugged version of R.E.M. Shiny Happy People played at home.
This is a short acoustic version and it's easy to figure out the main guitar parts.
See the TAB under the video.



REM SHINY HAPPY PEOPLE TAB

PDF >>

Intro & Chorus

  B       E       A     F#m

e---------0---0-0-------2-2---2-2---------------------------------------
B-4---4-4-0---0-0-2-2-x-2-2---2-2---------------------------------------
G-4---4-4-1---1-1-2-2-x-2-2---2-2---------------------------------------
D-4---4-4-2---2-2-2-2-x-4-4---4-4---------------------------------------
A-2---2-2-2---2-2-0-0-x-4-4---4-4---------------------------------------
E---------0---0-0-------2-2---2-2---------------------------------------

  B       E       A

e---------0---0-0-------------------------------------------------------
B-4---4-4-0---0-0-2---2-2---2-2-2---------------------------------------
G-4---4-4-1---1-1-2---2-2---2-2-2---------------------------------------
D-4---4-4-2---2-2-2---2-2---2-2-2---------------------------------------
A-2---2-2-2---2-2-0---0-0---0-0-0---------------------------------------
E---------0---0-0-------------------------------------------------------




Verse

  F#m       E   F#m         E     A               E

e-2---2-2---0---2-2---2-2---0-0-0-----0-0---0-0-0-----0-0---0-0-0-------
B-2---2-2-x-0-x-2-2---2-2-x-0-0-0-----0-0---0-0-0-----0-0---0-0-0-------
G-2---2-2-x-1-x-2-2---2-2-x-1-1-1-6---6-6---6-6-6-9---9-9---9-9-9-------
D-4---4-4-x---x-4-4---4-4-x-------7---7-7---7-7-7-9---9-9---9-9-9-- 4x -
A-4---4-4-x---x-4-4---4-4-x-------7---7-7---7-7-7-7---7-7---7-7-7-------
E-----------------------------------------------------------------------

  G                               E                     E sus4

e-3---3-3-3---3-3-3---3-3---3-3-3-0---0---0---0-0---0-0-0-0-0-0-0-------
B-3---3-3-3---3-3-3---3-3---3-3-3-0---0---0---0-0---0-0-0-0-0-0-0-------
G-0---0-0-0---0-0-0---0-0---0-0-0-1---1---1---1-1---1-1-2-2-2-2-1-------
D-0---0-0-0---0-0-0---0-0---0-0-0-2---2---2---2-2---2-2-2-2-2-2-2-------
A-2---2-2-2---2-2-2---2-2---2-2-2-2---2---2---2-2---2-2-2-2-2-2-2-------
E-3---3-3-3---3-3-3---3-3---3-3-3-0---0---0---0-0---0-0-0-0-0-0-0-------


The legendary intro solo ... by the way ...

e-2p0-2---0-------------0-----2---0-----2p0-2---0-------------0---------
B-------------0---0-0h2-----0-----------------------0---0-0h2-----------
G-----------------------------------------------------------------------
D-----------------------------------------------------------------------
A-----------------------------------------------------------------------
E-----------------------------------------------------------------------


e-2p0-2---0-------------0-----2---0-----2p0-2---0-------------0-----2---
B-------------0---0-0h2-----0-----------------------0---0-0h2-----0-----
G-----------------------------------------------------------------------
D-----------------------------------------------------------------------
A-----------------------------------------------------------------------
E-----------------------------------------------------------------------


e-0---------------------------------------------------------------------
B---0-------------------------------------------------------------------
G-----------------------------------------------------------------------
D-----------------------------------------------------------------------
A-----------------------------------------------------------------------
E-----------------------------------------------------------------------


 ... and the original intro and outro chords ...

  G       Em      Bm      C

e-3-------0-------2-------0---------------------------------------------
B-3-------0-------3-------1---------------------------------------------
G-0-------0-------4-------0----------  2x  -----------------------------
D-0-------2-------4-------2---------------------------------------------
A-2-------2-------2-------3---------------------------------------------
E-3-------0-------------------------------------------------------------