20130724

GREEN DAY OH LOVE TAB

There is an awesome guitar solo in Green Day - Oh Love. The first half is played by Billie Joe, the other part is played by the new guitarist, Jason White. In the video we show you how to play the solo part with normal speed and then slower too.
TAB of the complete song below.



GREEN DAY OH LOVE TAB

PDF >>

Intro

e-----------------------------------------------------------------------
B-----------------------------------------------------------------------
G-------------------------------6---------------------------------------
D-x-x-6---6---x-------x-------x-6-----6---6---x-------x-------x---------
A-x-x-6---6---x-------x-------x-4-----6---6---x-------x-------x---------
E-x-x-4---4---x-------x-------x-------4---4---x-------x-------x---------


e-----------------------------------------------------------------------
B-----------------------------------------------------------------------
G-6-------6-----6-6---6---6---6-6---------------------------6-----------
D-6-------6-----6-6---6---6---6-6-6---6---x-------x-------x-6-----------
A-4-------4-----4-4---4---4---4-4-6---6---x-------x-------x-4-----------
E---------------------------------4---4---x-------x-------x-------------



Verse

e-----------------------------------------------------------------------
B-----------------------------------------------------------------------
G---------------------------6-------------------------------------------
D-6---6---x-------x-------x-6-----6---6---x-------x-------x-------------
A-6---6---x-------x-------x-4-----6---6---x-------x-------x-------------
E-4---4---x-------x-------x-------4---4---x-------x-------x-------------


e-----------------------------------------------------------------------
B-----------------------------------------------------------------------
G-6-------6-----6-6---6---6---6-6---------------------------6-----------
D-6-------6-----6-6---6---6---6-6-6---6---x-------x-------x-6-----------
A-4-------4-----4-4---4---4---4-4-6---6---x-------x-------x-4-----------
E---------------------------------4---4---x-------x-------x-------------


e-----------------------------------------------------------------------
B-----------------------------------------------------------------------
G---------------------------6-------------------------------------------
D-6---6---x-------x-------x-6-----6---6---x-------x-------x-------------
A-6---6---x-------x-------x-4-----6---6---x-------x-------x-------------
E-4---4---x-------x-------x-------4---4---x-------x-------x-------------


e-----------------------------------------------------------------------
B-----------------------------------------------------------------------
G-6-------6-----6-6---6---6---6-6---------------------------6-----------
D-6-------6-----6-6---6---6---6-6-6---6---x-------x-------x-6-----------
A-4-------4-----4-4---4---4---4-4-6---6---x-------x-------x-4-----------
E---------------------------------4---4---x-------x-------x-------------


e-----------------------------------------------------------------------
B-----------------------------------------------------------------------
G---------------------------6-------------------------------------------
D-6---6---x-----x-x-------x-6-----6---6---x-------x-------x-------------
A-6---6---x-----x-x-------x-4-----6---6---x-------x-------x-------------
E-4---4---x-----x-x-------x-------4---4---x-------x-------x-------------


e-----------------------------------------------------------------------
B-----------------------------------------------------------------------
G-6-------6-----6-6---6---6---6-6---------------------------6-----------
D-6-------6-----6-6---6---6---6-6-6---6---x-------x-------x-6-----------
A-4-------4-----4-4---4---4---4-4-6---6---x-------x-------x-4-----------
E---------------------------------4---4---x-------x-------x-------------


e-----------------------------------------------------------------------
B-----------------------------------------------------------------------
G---------------------------6-------------------------------------------
D-6---6---x-------x-------x-6-----6---6---x-----------------------------
A-6---6---x-------x-------x-4-----6---6---x-----------------------------
E-4---4---x-------x-------x-------4---4---x-----------------------------


e-----------------------------------------------------------------------
B-----------------------------------------------------------------------
G-6-------5-------6---------------8---8---8---8---8---8---8---8---------
D-6-------6-------6-------6-------8---8---8---8---8---8---8---8---------
A-4-------3-------4-------6-------6---6---6---6---6---6---6---6---------
E-------------------------4---------------------------------------------


e-----------------------------------------------------------------------
B-----------------------------------------------------------------------
G-8---8---8---8---8---8---8---8-----------------------------------------
D-8---8---8---8---8---8---8---8-----------------------------------------
A-6---6---6---6---6---6---6---6-----------------------------------------
E-----------------------------------------------------------------------


Chorus

e-----------------------------------------------------------------------
B-----------------------------------------------------------------------
G-----------------8---8---8---8-8-----------------6-6---6-6---6-6-------
D-6---6---6---6-6-8---8---8---8-8-6---6---6---6-6-6-6---6-6---6-6-------
A-6---6---6---6-6-6---6---6---6-6-6---6---6---6-6-4-4---4-4---4-4-------
E-4---4---4---4-4-----------------4---4---4---4-4-----------------------


e-----------------------------------------------------------------------
B-----------------------------------------------------------------------
G-----------------8---8---8---8-8-----------------x-8-8-8-8-8-8-8-------
D-6---6---6---6-6-8---8---8---8-8-6---6---6---6-6-x-8-8-8-8-8-8-8-------
A-6---6---6---6-6-6---6---6---6-6-6---6---6---6-6-x-6-6-6-6-6-6-6-------
E-4---4---4---4-4-----------------4---4---4---4-4-----------------------


e-----------------------------------------------------------------------
B-----------------------------------------------------------------------
G-----------------8---8---8---8-8-----------------6-6---6-6---6-6-------
D-6---6---6---6-6-8---8---8---8-8-6---6---6---6-6-6-6---6-6---6-6-------
A-6---6---6---6-6-6---6---6---6-6-6---6---6---6-6-4-4---4-4---4-4-------
E-4---4---4---4-4-----------------4---4---4---4-4-----------------------


e-----------------------------------------------------------------------
B-----------------------------------------------------------------------
G-----------------8---8---8---8-8---------------------------------------
D-6---6---6---6-6-8---8---8---8-8---------------------------------------
A-6---6---6---6-6-6---6---6---6-6---------------------------------------
E-4---4---4---4-4-------------------------------------------------------


Break ~ intro

e-----------------------------------------------------------------------
B-----------------------------------------------------------------------
G---------------------------6-------------------------------------------
D-6---6---x-------x-------x-6-----6---6---x-------x-------x-------------
A-6---6---x-------x-------x-4-----6---6---x-------x-------x-------------
E-4---4---x-------x-------x-------4---4---x-------x-------x-------------


e-----------------------------------------------------------------------
B-----------------------------------------------------------------------
G-6-------6-----6-6---6---6---6-6---------------------------6-----------
D-6-------6-----6-6---6---6---6-6-6---6---x-------x-------x-6-----------
A-4-------4-----4-4---4---4---4-4-6---6---x-------x-------x-4-----------
E---------------------------------4---4---x-------x-------x-------------

Verse 2

e-----------------------------------------------------------------------
B-----------------------------------------------------------------------
G---------------------------6-------------------------------------------
D-6---6---x---------------x-6-----6---6---x-----------------------------
A-6---6---x---------------x-4-----6---6---x-----------------------------
E-4---4---x---------------x-------4---4---x-----------------------------

(2nd guitar   x x   x x                       x x   x x   )

e-----------------------------------------------------------------------
B-----------------------------------------------------------------------
G-6-------6-----6-6---6---6---6-6---------------------------6-----------
D-6-------6-----6-6---6---6---6-6-6---6---x---------------x-6-----------
A-4-------4-----4-4---4---4---4-4-6---6---x---------------x-4-----------
E---------------------------------4---4---x---------------x-------------

                                      (       x x   x x      )

e-----------------------------------------------------------------------
B-----------------------------------------------------------------------
G---------------------------6-------------------------------------------
D-6---6---x---------------x-6-----6---6---x-----------------------------
A-6---6---x---------------x-4-----6---6---x-----------------------------
E-4---4---x---------------x-------4---4---x-----------------------------

(2nd guitar   x x   x x                       x x   x x   )


e-----------------------------------------------------------------------
B-----------------------------------------------------------------------
G-6-------6-----6-6---6---6---6-6---------------------------6-----------
D-6-------6-----6-6---6---6---6-6-6---6---x---------------x-6-----------
A-4-------4-----4-4---4---4---4-4-6---6---x---------------x-4-----------
E---------------------------------4---4---x---------------x-------------

                                      (       x x   x x      )

e-----------------------------------------------------------------------
B-----------------------------------------------------------------------
G---------------------------6-------------------------------------------
D-6---6---x---------------x-6-----6---6---x-----------------------------
A-6---6---x---------------x-4-----6---6---x-----------------------------
E-4---4---x---------------x-------4---4---x-----------------------------

(2nd guitar   x x   x x                       x x   x x   )


e-----------------------------------------------------------------------
B-----------------------------------------------------------------------
G-6-------6-----6-6---6---6---6-6---------------------------6-----------
D-6-------6-----6-6---6---6---6-6-6---6---x---------------x-6-----------
A-4-------4-----4-4---4---4---4-4-6---6---x---------------x-4-----------
E---------------------------------4---4---x---------------x-------------

                                      (       x x   x x      )

e-----------------------------------------------------------------------
B-----------------------------------------------------------------------
G---------------------------6-------------------------------------------
D-6---6---x---------------x-6-----6---6---x-----------------------------
A-6---6---x---------------x-4-----6---6---x-----------------------------
E-4---4---x---------------x-------4---4---x-----------------------------

(2nd guitar   x x   x x                       x x   x x   )


e-----------------------------------------------------------------------
B-----------------------------------------------------------------------
G-6-------5-------6---------------8---8---8---8---8---8---8---8---------
D-6-------6-------6-------6-------8---8---8---8---8---8---8---8---------
A-4-------3-------4-------6-------6---6---6---6---6---6---6---6---------
E-------------------------4---------------------------------------------


e-----------------------------------------------------------------------
B-----------------------------------------------------------------------
G-8-8-8---8---8-8-8-8-8---8---8-8---------------------------------------
D-8-8-8---8---8-8-8-8-8---8---8-8---------------------------------------
A-6-6-6---6---6-6-6-6-6---6---6-6---------------------------------------
E-----------------------------------------------------------------------


Chorus 2

e-----------------------------------------------------------------------
B-----------------------------------------------------------------------
G-----------------8---8---8---8-8-----------------6-6---6-6---6-6-------
D-6---6---6---6-6-8---8---8---8-8-6---6---6---6-6-6-6---6-6---6-6-------
A-6---6---6---6-6-6---6---6---6-6-6---6---6---6-6-4-4---4-4---4-4-------
E-4---4---4---4-4-----------------4---4---4---4-4-----------------------


e-----------------------------------------------------------------------
B-----------------------------------------------------------------------
G-----------------8---8---8---8-8-----------------x-8-8-8-8-8-8-8-------
D-6---6---6---6-6-8---8---8---8-8-6---6---6---6-6-x-8-8-8-8-8-8-8-------
A-6---6---6---6-6-6---6---6---6-6-6---6---6---6-6-x-6-6-6-6-6-6-6-------
E-4---4---4---4-4-----------------4---4---4---4-4-----------------------


e-----------------------------------------------------------------------
B-----------------------------------------------------------------------
G-----------------8---8---8---8-8-----------------6-6---6-6---6-6-------
D-6---6---6---6-6-8---8---8---8-8-6---6---6---6-6-6-6---6-6---6-6-------
A-6---6---6---6-6-6---6---6---6-6-6---6---6---6-6-4-4---4-4---4-4-------
E-4---4---4---4-4-----------------4---4---4---4-4-----------------------


e-----------------------------------------------------------------------
B-----------------------------------------------------------------------
G-----------------8---8---8---8-8---------------------------------------
D-6---6---6---6-6-8---8---8---8-8-6---6---6---6---6---6---6-4-----------
A-6---6---6---6-6-6---6---6---6-6-6---6---6---6---6---6---6-4-----------
E-4---4---4---4-4-----------------4---4---4---4---4---4---4-2-----------


Bridge

e-----------------------------------------------------------------------
B-----------------------------------------------------------------------
G-6---6---x-------6---6---x---------------------------------------------
D-6---6---x-------6---6---x-------6---6---x-------6---6---6-4-----------
A-4---4---x-------4---4---x-------6---6---x-------6---6---6-4-----------
E---------------------------------4---4---x-------4---4---4-2-----------


e-----------------------------------------------------------------------
B-----------------------------------------------------------------------
G-6---6-6-6---6-6-6---6-6-6---6-6---------------------------------------
D-6---6-6-6---6-6-6---6-6-6---6-6-6---6-6-6---6-6-6---6-6-6-4-----------
A-4---4-4-4---4-4-4---4-4-4---4-4-6---6-6-6---6-6-6---6-6-6-4-----------
E---------------------------------4---4-4-4---4-4-4---4-4-4-2-----------


e-----------------------------------------------------------------------
B-----------------------------------------------------------------------
G-6---6---x-------6---6---x-----------------8-----10---10-10-10---10-10-
D-6---6---x-------6---6---x-------6---6---x-8-----10---10-10-10---10-10-
A-4---4---x-------4---4---x-------6---6---x-6-----8----8--8--8----8--8--
E---------------------------------4---4---x-----------------------------


e-----------------------------------------------------------------------
B-----------------------------------------------------------------------
G-6-------5-------6---------------8---8---8---8---8-8-8---8---8-8-------
D-6-------6-------6-------6-------8---8---8---8---8-8-8---8---8-8-------
A-4-------3-------4-------6-------6---6---6---6---6-6-6---6---6-6-------
E-------------------------4---------------------------------------------


Billie Joe solo

e-----------------------------------------------------------------------
B-----------------------------------------------------------------------
G-1~-------1---0-1-3~-------3---1-3-3/5~-------5---3-5-5/6~-------6-----
D-----------------------------------------------------------------------
A-----------------------------------------------------------------------
E-----------------------------------------------------------------------


e------------4--------------------------------------------------4-------
B----------4---4-7(9)(7)-4------------------------------------4---------
G-5-6-6(8)-----------------6-(8)-(6)p4-----4---6p4-----4-6(8)-----------
D--------------------------------------6-----------6--------------------
A-----------------------------------------------------------------------
E-----------------------------------------------------------------------


e-----------------------------------------------------------------------
B-7(9)-(7)(9)(7)-7(9)~~-------///19\\\----------------------------------
G-----------------------------------------------------------------------
D-----------------------------------------------------------------------
A-----------------------------------------------------------------------
E-----------------------------------------------------------------------


Jason White solo

e-----------------------------------------------------------------------
B-----------------------------------------------------------------------
G-13~-------13---12-13-13/15~-------15---13-15-15/17~-------17----------
D-----------------------------------------------------------------------
A-----------------------------------------------------------------------
E-----------------------------------------------------------------------


e-----------------------------------------------------------------------
B-----------------------------------------------------------------------
G-15-17-17/18~-------18---15-17-18~-------17~------18~------------------
D------------------------------------------------------------18~--------
A-----------------------------------------------------------------------
E-----------------------------------------------------------------------


e----------------------------------16-18~---------18-20-21---18---------
B-16~----------16-18-20~--------20--------------------------------------
G-----------------------------------------------------------------------
D-----------------------------------------------------------------------
A-----------------------------------------------------------------------
E-----------------------------------------------------------------------


e-21(23)(21)(23)~~~---\\\-----------------------------------------------
B-----------------------------------------------------------------------
G-----------------------------------------------------------------------
D-----------------------------------------------------------------------
A-----------------------------------------------------------------------
E-----------------------------------------------------------------------


Break ~ intro

e-----------------------------------------------------------------------
B-----------------------------------------------------------------------
G---------------------------6-------------------------------------------
D-6---6---x-------x-------x-6-----6---6---x-------x-------x-------------
A-6---6---x-------x-------x-4-----6---6---x-------x-------x-------------
E-4---4---x-------x-------x-------4---4---x-------x-------x-------------


e-----------------------------------------------------------------------
B-----------------------------------------------------------------------
G-6-------6-----6-6---6---6---6-6---------------------------6-----------
D-6-------6-----6-6---6---6---6-6-6---6---x-------x-------x-6-----------
A-4-------4-----4-4---4---4---4-4-6---6---x-------x-------x-4-----------
E---------------------------------4---4---x-------x-------x-------------


Verse 3

e-----------------------------------------------------------------------
B-----------------------------------------------------------------------
G---------------------------6-------------------------------------------
D-6---6---x-------x-------x-6-----6---6---x-------x-------x-------------
A-6---6---x-------x-------x-4-----6---6---x-------x-------x-------------
E-4---4---x-------x-------x-------4---4---x-------x-------x-------------


e-----------------------------------------------------------------------
B-----------------------------------------------------------------------
G-6-------6-----6-6---6---6---6-6---------------------------6-----------
D-6-------6-----6-6---6---6---6-6-6---6---x-------x-------x-6-----------
A-4-------4-----4-4---4---4---4-4-6---6---x-------x-------x-4-----------
E---------------------------------4---4---x-------x-------x-------------


e-----------------------------------------------------------------------
B-----------------------------------------------------------------------
G---------------------------6-------------------------------------------
D-6---6---x-------x-------x-6-----6---6---x-------x-------x-------------
A-6---6---x-------x-------x-4-----6---6---x-------x-------x-------------
E-4---4---x-------x-------x-------4---4---x-------x-------x-------------


e-----------------------------------------------------------------------
B-----------------------------------------------------------------------
G-6-------5-------6---------------8---8---8---8---8---8---8---8---------
D-6-------6-------6-------6-------8---8---8---8---8---8---8---8---------
A-4-------3-------4-------6-------6---6---6---6---6---6---6---6---------
E-------------------------4---------------------------------------------


e-----------------------------------------------------------------------
B-----------------------------------------------------------------------
G-8-8-8-8-8-8-8-8-8-8-8-8-8-8-8-8---------------------------------------
D-8-8-8-8-8-8-8-8-8-8-8-8-8-8-8-8---------------------------------------
A-6-6-6-6-6-6-6-6-6-6-6-6-6-6-6-6---------------------------------------
E-----------------------------------------------------------------------


Chorus 3    4 x

e-----------------------------------------------------------------------
B-----------------------------------------------------------------------
G-----------------8---8---8---8-8-----------------6-6---6-6---6-6-------
D-6---6---6---6-6-8---8---8---8-8-6---6---6---6-6-6-6---6-6---6-6-------
A-6---6---6---6-6-6---6---6---6-6-6---6---6---6-6-4-4---4-4---4-4-------
E-4---4---4---4-4-----------------4---4---4---4-4-----------------------


e-----------------------------------------------------------------------
B-----------------------------------------------------------------------
G-----------------8---8---8---8-8-----------------x-8-8-8-8-8-8-8-------
D-6---6---6---6-6-8---8---8---8-8-6---6---6---6-6-x-8-8-8-8-8-8-8-------
A-6---6---6---6-6-6---6---6---6-6-6---6---6---6-6-x-6-6-6-6-6-6-6-------
E-4---4---4---4-4-----------------4---4---4---4-4-----------------------


The end

e-----------------------------------------------------------------------
B-----------------------------------------------------------------------
G-----------------8---8---8---8-8-----------------x-8-8-8-8-8-8-8-------
D-6---6---6---6-6-8---8---8---8-8-6---6---6---6-6-x-8-8-8-8-8-8-8-------
A-6---6---6---6-6-6---6---6---6-6-6---6---6---6-6-x-6-6-6-6-6-6-6-------
E-4---4---4---4-4-----------------4---4---4---4-4-----------------------


e-----------------------------------------------------------------------
B-----------------------------------------------------------------------
G-----------------8---8---8---8-8-----------6---------------------------
D-6---6---6---6-6-8---8---8---8-8-6---6---x-6-----6---------------------
A-6---6---6---6-6-6---6---6---6-6-6---6---x-4-----6---------------------
E-4---4---4---4-4-----------------4---4---x-------4---------------------