20130711

JEFF HEALEY HOOCHIE COOCHIE MAN TAB

There is Jeff Healey's version of 'HOOCHIE COOCHIE MAN' from the Road House movie. Take your Fender Stratocaster with your tube amplifier and you can rock this song. There is a TAB below that helps to play the first section ( intro verse chorus ) after that you can add your own ideas.



JEFF HEALEY HOOCHIE COOCHIE MAN TAB

PDF >>

Intro

e-----------------------------------------------------------------------
B-----------------------------------------------------------------------
G------5-------5----------------------------5-------5-------------------
D------5-------5---7.-----------------------5-------5---7.--------------
A-/7-------x---------------------------/7-------x-----------------------
E-----------------------------------------------------------------------


e-----------------------------------------------------------------------
B-----------------------------------------------------------------------
G------5-------5----------------------------5-------5-------------------
D------5-------5---7.-----------------------5-------5---7.--------------
A-/7-------7---------------------------/7-------x-----------------------
E-----------------------------------------------------------------------



e-----------------------------------------------------------------------
B-----------------------------------------------------------------------
G-7(9)---(9)-(7)-5~-----------------------------------------------------
D-----------------------------------------------------------------------
A-----------------------------------------------------------------------
E-----------------------------------------------------------------------


Verse

e-----------------------------------------------------------------------
B-----------------------------------------------------------------------
G------5-------5----------------------------5-------5-------------------
D------5-------5---7.-----------------------5-------5---7.--------------
A-/7-------7---------------------------/7-------7-----------------------
E-----------------------------------------------------------------------


e-----------------------------------------------------------------------
B-----------------------------------------------------------------------
G------5-------5----------------------------5-------5-------------------
D------5-------5---7.-----------------------5-------5---7.--------------
A-/7-------x---------------------------/7-------7-----------------------
E-----------------------------------------------------------------------


e-----------------------------------------------------------------------
B-----------------------------------------------------------------------
G------5-------5----------------------------5-------5-------------------
D------5-------5---7.-----------------------5-------5---7.--------------
A-/7-------7---------------------------/7-------7-----------------------
E-----------------------------------------------------------------------


e-----------------------------------------------------------------------
B-------------------------------------------------------/8---8--8-------
G------5-------5----------------------------5-----------/9---9--9-------
D------5-------5---7.-----------------------5---------------------------
A-/7-------7---------------------------/7-------7---0-------------------
E-----------------------------------------------------------------------


e-----------------------------------------------------------------------
B-/8---8--8---/8---8--8---/8---8--8-------------------------------------
G-/9---9--9---/9---9--9---/9---9--9-------------------------------------
D-----------------------------------------------------------------------
A-----------------------------------------------------------------------
E-----------------------------------------------------------------------


Chorus

e-------5/7---5~--------------------------------------------------------
B-------------------------------------5/7---5~-------5--5---------------
G-5-----5/7---5~----------------------5/7---5~-------5--5---------------
D-----------------------5--6--7----------------------------7------------
A-5---5--------------7----------5---5-------------------------0---------
E-----------------------------------------------------------------------


e-----------------------------------------------------------------------
B-/8---8--8---/8---8--8---/8---8--8---/8---8--8---/8---8--8-------------
G-/9---9--9---/9---9--9---/9---9--9---/9---9--9---/9---9--9-------------
D-----------------------------------------------------------------------
A-----------------------------------------------------------------------
E-----------------------------------------------------------------------


e-----------------------7--7--7--7--7--7--7--7--7--7--7--6--------------
B--------7-5'-----------7--7--7--7--7--7--7--7--7--7--7--6--------------
G-9\7--5-7-5'---7-------7--7--7--7--7--7--7--7--7--7--7--6--------------
D---------------7-------6--6--6--6--6--6--6--6--6--6--6--5--------------
A-----------------5-6-7-------------------------------------------------
E-----------------------------------------------------------------------


e-5-----5--5--5--5--5--5--5--5--5----------8'-----5-7---5-5~------------
B-5-----5--5--5--5--5--5--5--5--5--x-----x------------7-----------------
G-5-----5--5--5--5--5--5--5--5--5--x-7---x------------------------------
D-4-----4--4--4--4--4--4--4--4--4--x-5---x------------------------------
A-5-----5--5--5--5--5--5--5--5--5--x-----x------------------------------
E------------------------------------5----------------------------------


e-----------------------------------------------------------------------
B-8---------------------------------------------------------------------
G---(9)---(7)---5--------------------5-------5--------------------------
D------------------7--5--------------5-------5---7.---------------------
A------------------------7~------7-------7------------------------------
E-----------------------------------------------------------------------