20130820

BOB MARLEY SOUL CAPTIVES TAB

There is a cool guitar solo in Bob Marley - Soul Captives
No effects, no distortion, just the pure sound of a tube amp and a Les Paul guitar.
See the TAB of the solo and the chords below.



BOB MARLEY SOUL CAPTIVES TAB

PDF >>

Intro solo

e----11~-----11.-9~---------8~------------------------------------------
B--------------------------------11~---9-9~-----------------------------
G-8.--------------------------------------------------------------------
D-----------------------------------------------------------------------
A-----------------------------------------------------------------------
E-----------------------------------------------------------------------


e-----------------------------------------------------------------------
B-8.--------------------------------------------------------------------
G----10~---10~---8.-8~-------8-8~---------------------------------------
D------------------------10.--------------------------------------------
A-----------------------------------------------------------------------
E-----------------------------------------------------------------------


e----11~----11.-8-8~----------------------------------------------------
B------------------------11~--11~---9~---8.-8~--------------------------
G-8.---------------------------------------------10.--------------------
D-----------------------------------------------------------------------
A-----------------------------------------------------------------------
E-----------------------------------------------------------------------



e-----------------------------------------------------------------------
B------8----------------------------------9-----------------------------
G-8h10---10~---10.--10.--------8.--8.--8.-------------------------------
D-----------------------8h10--------------------------------------------
A-----------------------------------------------------------------------
E-----------------------------------------------------------------------


Solo by 1:11

e-----------------11---11-11-11-11-11-11-11-----------------------------
B-----------------------------------------------------------------------
G-8-8-8-8-8-8-8---------------------------------------------------------
D-----------------------------------------------------------------------
A-----------------------------------------------------------------------
E-----------------------------------------------------------------------


e-8-9-8-----------------------------------------------------------------
B-------11---11.-9-----8.-----------------------------------------------
G-------------------------10~-------------------------------------------
D-----------------------------------------------------------------------
A-----------------------------------------------------------------------
E-----------------------------------------------------------------------


e-----------------------------------------------------------------------
B-------------------------8---------------------------------------------
G-----------8-8.-----8-10-----10-10.----------8~------------------------
D-8-10-10--------------------------------8h10---------------------------
A-----------------------------------------------------------------------
E-----------------------------------------------------------------------


e----11-11.----8-8.-----------------------------------------------------
B----------------------11-11.---9.--8-8.--------------------------------
G-8.----------------------------------------10-10.---8.--8-8.---------8.
D---------------------------------------------------------------8h10----
A-----------------------------------------------------------------------
E-----------------------------------------------------------------------


e---------------------8-9-11---11.--------------------------------------
B------8-9---11.-----------------------8h9~-----------------------------
G-8-10------------------------------------------------------------------
D-----------------------------------------------------------------------
A-----------------------------------------------------------------------
E-----------------------------------------------------------------------


Intro/Chorus/Solo

e-4---------------8---------------4-------6-------4--------(4)----------
B-4---------------9---------------6-------8-------4--------(7)----------
G-5---------------10--------------6-------8-------5--------(5)----------
D-6---------------10--------------6-------8-------6--------(4)----------
A-6---------------8---------------4-------6-------6--------(6)----------
E-4-----------------------------------------------4--------(4)----------


Verse

e-4--------6-------4---------------4--------6-------4-------------------
B-6--------8-------4---------------6--------8-------4-------------------
G-6--------8-------5---------------6--------8-------5-------------------
D-6--------8-------6---------------6--------8-------6-------------------
A-4--------6-------6---------------4--------6-------6-------------------
E------------------4--------------------------------4-------------------


e-6--------8-------8---------------6----------------6-------------------
B-6--------8-------9---------------6----------------8-------------------
G-6--------8-------10--------------6----------------8-------------------
D-8--------10------10--------------8----------------8-------------------
A-8--------10------8---------------8----------------6-------------------
E-6--------8-----------------------6------------------------------------


Strumming pattern:   down(x)   up    down(x) up(x)   down(x)    up    down(x) up(x)