20130804

CREEDENCE CLEARWATER REVIVAL HEY TONIGHT TAB


Short video how to play the intro part of Creedence Clearwater Revival - Hey tonight. Thanks JOHN FOGERTY for this awesome guitar riff and song. Use a tube amplifier and a LesPaul guitar with the bridge pick-up to get the original sound.
See the COMPLETE TAB under the video.


CREEDENCE CLEARWATER REVIVAL HEY TONIGHT TAB     

PDF >>

Intro

e-12-p9-9---7-p0-0---0---0---0---0---12-p9-9---7-p0-0---0---0---0---0---
B-0-----0---0----0---5---5---2---2---0-----0---0----0---5---5---2---2---
G-----------------------------------------------------------------------
D-----------------------------------------------------------------------
A-----------------------------------------------------------------------
E-----------------------------------------------------------------------


e-12-p9-9---7-p0-0---0---0---0---0-------0-------0-------0-------0------
B-0-----0---0----0---5---5---2---2-------0-------0-------0-------0------
G-----------------------------------------------------------------------
D------------------------------------6-------4-------6-------4----------
A-----------------------------------------------------------------------
E-----------------------------------------------------------------------



e-----0-------0-------0-------0-----------------------------------------
B-----0-------0-------0-------0-----------------------------------------
G-----------------------------------------------------------------------
D-6-------4-------6-------4---------------------------------------------
A-----------------------------------------------------------------------
E-----------------------------------------------------------------------


Verse

e-----------------------------------------------------------------------
B-----------------------------------------------------------------------
G-----------------------------------------------------------------------
D-----------------------------------------------------------------------
A-2-2-4-2-2-2-4-2-2-2-4-2-2-2-4-2--2-2-4-2-2-2-4-2-2-2-4-2-2-2-4-2------
E-0-0-0-0-0-0-0-0-0-0-0-0-0-0-0-0--0-0-0-0-0-0-0-0-0-0-0-0-0-0-0-0------
  x x x x x x x x x x x x x x x x  x x x x x x x x x x x x x x x x


e-----------------------------------------------------------------------
B-----------------------------------------------------------------------
G-----------------------------------------------------------------------
D----------------------------------2-2-4-2-2-2-4-2-2-2-4-2-2-2-4-2------
A-2-2-4-2-2-2-4-2-2-2-4-2-2-2-4-2--0-0-0-0-0-0-0-0-0-0-0-0-0-0-0-0------
E-0-0-0-0-0-0-0-0-0-0-0-0-0-0-0-0---------------------------------------
  x x x x x x x x x x x x x x x x  x x x x x x x x x x x x x x x x


e-----------------------------------------------------------------------
B-----------------------------------------------------------------------
G-----------------------------------------------------------------------
D-----------------------------------------------------------------------
A-2-2-4-2-2-2-4-2-2-2-4-2-2-2-4-2---------------------------------------
E-0-0-0-0-0-0-0-0-0-0-0-0-0-0-0-0---------------------------------------
  x x x x x x x x x x x x x x x x  

Verse 2

e-----------------------------------------------------------------------
B-----------------------------------------------------------------------
G-----------------------------------------------------------------------
D-----------------------------------------------------------------------
A-2-2-4-2-2-2-4-2-2-2-4-2-2-2-4-2--2-2-4-2-2-2-4-2-2-2-4-2-2-2-4-2------
E-0-0-0-0-0-0-0-0-0-0-0-0-0-0-0-0--0-0-0-0-0-0-0-0-0-0-0-0-0-0-0-0------
  x x x x x x x x x x x x x x x x  x x x x x x x x x x x x x x x x


e-----------------------------------------------------------------------
B-----------------------------------------------------------------------
G-----------------------------------------------------------------------
D-2-2-4-2-2-2-4-2-2-2-4-2-2-2-4-2---------------------------------------
A-0-0-0-0-0-0-0-0-0-0-0-0-0-0-0-0--2-2-4-2-2-2-4-2-2-2-4-2-2-2-4-2------
E----------------------------------0-0-0-0-0-0-0-0-0-0-0-0-0-0-0-0------
  x x x x x x x x x x x x x x x x  x x x x x x x x x x x x x x x x


Chorus

e-----------------------------------------------------------------------
B-----------------------------------------------------------------------
G-----------------------------------------------------------------------
D-4-4-6-6-4-4-6-6------------------4-4-6-6-4-4-6-6-4-4-6-6-4-4-6-6------
A-2-2-2-2-2-2-2-2-4-4-6-6-4-4-6-6--2-2-2-2-2-2-2-2-2-2-2-2-2-2-2-2------
E-----------------2-2-2-2-2-2-2-2---------------------------------------


e-----------------------------------------------------------------------
B-----------------------------------------------------------------------
G--------------------------------------------------4-4-4-4-4-4-4-4------
D-4-4-6-6-4-4-6-6------------------4-4-6-6-4-4-6-6-4-4-4-4-4-4-4-4------
A-2-2-2-2-2-2-2-2-4-4-6-6-4-4-6-6--2-2-2-2-2-2-2-2-2-2-2-2-2-2-2-2------
E-----------------2-2-2-2-2-2-2-2---------------------------------------


Verse 3 = Verse 2


SOLO

e----0------0-----0-----0-----0-----0-----0-----0-----------------------
B-9-----10-----9--------------------------------------------------------
G--------------------9--------------------------------------------------
D--------------------------9-----7-----6--------------------------------
A--------------------------------------------7--------------------------
E-----------------------------------------------------------------------


e----0------0-----0-----0-----0-----0-----0-----0-----------------------
B-9-----10-----9--------------------------------------------------------
G--------------------9--------------------------------------------------
D--------------------------9-----7-----6--------------------------------
A--------------------------------------------7--------------------------
E-----------------------------------------------------------------------


e-----------------------------------------------------------------------
B-----------------------------------------------------------------------
G-----------------------------------------------------------------------
D-2-2-4-2-2-2-4-2-2-2-4-2-2-2-4-2---------------------------------------
A-0-0-0-0-0-0-0-0-0-0-0-0-0-0-0-0--2-2-4-2-2-2-4-2-2-2-4-2-2-2-4-2------
E----------------------------------0-0-0-0-0-0-0-0-0-0-0-0-0-0-0-0------
  x x x x x x x x x x x x x x x x  x x x x x x x x x x x x x x x x


e-----------------------------------------------------------------------
B-----------------------------------------------------------------------
G-----------------------------------------------------------------------
D-2-2-4-2-2-2-4-2-2-2-4-2-2-2-4-2---------------------------------------
A-0-0-0-0-0-0-0-0-0-0-0-0-0-0-0-0--2-2-4-2-2-2-4-2-2-2-4-2-2-2-4-2------
E----------------------------------0-0-0-0-0-0-0-0-0-0-0-0-0-0-0-0------
  x x x x x x x x x x x x x x x x  x x x x x x x x x x x x x x x x


Chorus 2

e-----------------------------------------------------------------------
B-----------------------------------------------------------------------
G-----------------------------------------------------------------------
D-4-4-6-6-4-4-6-6------------------4-4-6-6-4-4-6-6-4-4-6-6-4-4-6-6------
A-2-2-2-2-2-2-2-2-4-4-6-6-4-4-6-6--2-2-2-2-2-2-2-2-2-2-2-2-2-2-2-2------
E-----------------2-2-2-2-2-2-2-2---------------------------------------


e-----------------------------------------------------------------------
B-----------------------------------------------------------------------
G-----------------------------------------------------------------------
D-4-4-6-6-4-4-6-6------------------4-4-6-6-4-4-6-6-4-4-6-6-4-4-6-6------
A-2-2-2-2-2-2-2-2-4-4-6-6-4-4-6-6--2-2-2-2-2-2-2-2-2-2-2-2-2-2-2-2------
E-----------------2-2-2-2-2-2-2-2---------------------------------------


e-----------------------------------------------------------------------
B-----------------------------------------------------------------------
G-4-4-4-4-4-4-4-4-------------------------------------------------------
D-4-4-4-4-4-4-4-4-------------------------------------------------------
A-2-2-2-2-2-2-2-2-------------------------------------------------------
E-----------------------------------------------------------------------


Verse 4

e-----------------------------------------------------------------------
B-----------------------------------------------------------------------
G-----------------------------------------------------------------------
D-----------------------------------------------------------------------
A-2-2-4-2-2-2-4-2-2-2-4-2-2-2-4-2--2-2-4-2-2-2-4-2-2-2-4-2-2-2-4-2------
E-0-0-0-0-0-0-0-0-0-0-0-0-0-0-0-0--0-0-0-0-0-0-0-0-0-0-0-0-0-0-0-0------
  x x x x x x x x x x x x x x x x  x x x x x x x x x x x x x x x x


e-----------------------------------------------------------------------
B-----------------------------------------------------------------------
G-----------------------------------------------------------------------
D----------------------------------2-2-4-2-2-2-4-2-2-2-4-2-2-2-4-2------
A-2-2-4-2-2-2-4-2-2-2-4-2-2-2-4-2--0-0-0-0-0-0-0-0-0-0-0-0-0-0-0-0------
E-0-0-0-0-0-0-0-0-0-0-0-0-0-0-0-0---------------------------------------
  x x x x x x x x x x x x x x x x  x x x x x x x x x x x x x x x x


e-----------------------------------------------------------------------
B-----------------------------------------------------------------------
G-----------------------------------------------------------------------
D----------------------------------2-2-4-2-2-2-4-2-2-2-4-2-2-2-4-2------
A-2-2-4-2-2-2-4-2-2-2-4-2-2-2-4-2--0-0-0-0-0-0-0-0-0-0-0-0-0-0-0-0------
E-0-0-0-0-0-0-0-0-0-0-0-0-0-0-0-0---------------------------------------
  x x x x x x x x x x x x x x x x  x x x x x x x x x x x x x x x x

(the end ... )

e----0-----0-----0-----0-----0-----0-----0-----0------------------------
B----0-----0-----0-----0-----0-----0-----0-----0------------------------
G-------------------------------------------------.............---------
D-6-----4-----2-----4-----6-----4-----2-----4-----.............---------
A-----------------------------------------------------------------------
E-----------------------------------------------------------------------