20130814

STING IT'S PROBABLY ME TAB (FEAT. ERIC CLAPTON)

It's Probably Me by Sting and Eric Clapton. Amazing studio record started with the magic lighter. Eric Clapton plays a cool solo with a Stratocaster, though there is an acoustic guitar in the video for the rest of the song.
See the TAB of Eric Clapton's guitar solo by 2:25 and also the main riff of the song.


STING - ERIC CLAPTON IT'S PROBABLY ME TAB                  

PDF >>

Clapton's solo by 2:25

e-----------------------------------------------------------------------
B-10(12)-----(10)(12)-----(10)~--------8-10p8~--------------------------
G-----------------------------------------------------------------------
D-----------------------------------------------------------------------
A-----------------------------------------------------------------------
E-----------------------------------------------------------------------


e-----------------------------------------------------------------------
B-10/12.-8'-------------------------------------------------------------
G-------------9-7----------------------------7'-------------------------
D-----------------9\7-5-7~-----------7-7/9--------9\7-5-----------------
A-------------------------------------------------------7~--------------
E-----------------------------------------------------------------------



e-----------12-------------12~~---------------15---14p12----12~----h14.-
B--------12----12-15(17)---------------------------------15-------------
G-14(16)----------------------------------------------------------------
D-----------------------------------------------------------------------
A-----------------------------------------------------------------------
E-----------------------------------------------------------------------


e--------3p2p0.-------0-------------------------------------------------
B-----------------3-----3/5~~--------------------3----------------------
G------------------------------------------2/4-----4\2--p0-2p0-2/4~~----
D-----------------------------------------------------------------------
A-----------------------------------------------------------------------
E-----------------------------------------------------------------------


e-------------------------------------------3'---0.---0h3p0.------------
B--------------------------------------------------------------3/5~~----
G-----------------------------------------------------------------------
D-------0--------2-------////-------------------------------------------
A-0--h2-----------------------------------------------------------------
E-----------3'----------------------------------------------------------


e-5/7.------------------------------------------------------------------
B-------------8'---10p8------8~-----10.-----(-10.-----10.-)-------------
G-----------9-----------9~----------------------------------------------
D-----------------------------------------------------------------------
A-----------------------------------------------------------------------
E-----------------------------------------------------------------------


e-----------------------------------------------------------------------
B------------------------------------8.--10(12).-8~---------------------
G-7---.--------------------------7h9--------------------9~--------------
D-------9\7p5h7~-----5.------7h9----------------------------------------
A-----------------------------------------------------------------------
E-----------------------------------------------------------------------


e-----------12-------------12~---------12-15p12-15p12~---12~------------
B--------12----12-15(17)------------------------------------------------
G-14(16)----------------------------------------------------------------
D-----------------------------------------------------------------------
A-----------------------------------------------------------------------
E-----------------------------------------------------------------------


e---17(19)-----(17)p15-------15'-----------------3'-----0---0-----------
B--x-------------------17~----------------------x-----------------------
G-x--------------------------------------------x------------------------
D-----------------------------------------------------------------------
A-----------------------------------------------------------------------
E-----------------------------------------------------------------------


Intro

e-----------------------------------------------------------------------
B-----------------------------------------------------------------------
G------5---x-5.---5--------------------5---x-5.---5---------------------
D------5---x-5.---5--------------------5---x-5.---5---------------------
A-3.---3---x-3.---3---------------3.---3---x-3.---3---------------------
E-----------------------------------------------------------------------


e-----------------------------------------------------------------------
B-----------------------------------------------------------------------
G------5---x-5.---5--------------------5---x-5.---5/7-------------------
D------5---x-5.---5--------------------5---x-5.---5/7-------------------
A-3.---3---x-3.---3---------------3.---3---x-3.---3/5-------------------
E-----------------------------------------------------------------------


Main riff

e-----------------------------------------------------------------------
B-----------------------------------------------------------------------
G------9---x-9.---9--------------------9---x-9.---9---------------------
D------9---x-9.---9--------------------9---x-9.---9---------------------
A-7.---7---x-7.---7---------------7.---7---x-7.---7---------------------
E-----------------------------------------------------------------------


e-----------------------------------------------------------------------
B-----------------------------------------------------------------------
G------9---x-9.---9--------------------9---x-9.---9---------------------
D------9---x-9.---9--------------------9---x-9.---9---------------------
A-7.---7---x-7.---7---------------7.---7---x-7.---7---------------------
E-----------------------------------------------------------------------


e-----------------------------------------------------------------------
B-----------------------------------------------------------------------
G------5---x-5.---5--------------------5---x-5.---5---------------------
D------5---x-5.---5--------------------7---x-7.---7---------------------
A---------------------------------5.---5---x-5.---5---------------------
E-5.---5---x-5.---5-----------------------------------------------------


e-----------------------------------------------------------------------
B-----------------------------------------------------------------------
G------9---x-9.---9--------------------9---x-9.---9---------------------
D------9---x-9.---9--------------------9---x-9.---9---------------------
A-7.---7---x-7.---7---------------7.---7---x-7.---7---------------------
E-----------------------------------------------------------------------

Chorus

e-----------------------------------------------------------------------
B-----------------------------------------------------------------------
G------5---x-5.---5--------------------7---x-7.---7---------------------
D------5---x-5.---5--------------------7---x-7.---7---------------------
A-----------------------------------------------------------------------
E-5.---5---x-5.---5---------------7.---7---x-7.---7---------------------


e-----------------------------------------------------------------------
B-----------------------------------------------------------------------
G------9---x-9.---9-----------------------------------------------------
D------9---x-9.---9-----------------------------------------------------
A-7.---7---x-7.---7-----------------------------------------------------
E---------------------------------9.---9---x-9.---9---------------------


e-----------------------------------------------------------------------
B------3---x-3.---3-----------------------------------------------------
G------5---x-5.---5--------------------7---x-7.---7---------------------
D------5---x-5.---5--------------------7---x-7.---7---------------------
A-3.---3---x-3.---3-----------------------------------------------------
E---------------------------------7.---7---x-7.---7---------------------


e-----------------------------------------------------------------------
B-----------------------------------------------------------------------
G------9---x-9.---9--------------------9---x-9.---9---------------------
D------9---x-9.---9--------------------9---x-9.---9---------------------
A-7.---7---x-7.---7---------------7.---7---x-7.---7---------------------
E-----------------------------------------------------------------------