20131015

ISHTAR HABIBI YA NOUR EL AIN TAB (INSTRUMENTAL COVER BY ABDEL YUSSEF)

Abdel Yussef plays an instrumental guitar cover of Ishtar - Habibi Ya Nour El Ain.
See the TAB below. Attention we are in half step down tuning !!!




ISHTAR HABIBI YA NOUR EL AIN TAB

PDF >>

D#-3/5---5---4h5p4-5p4-5p4-------------------4--------------------------
A#-------------------------6p5-3---5h6---6-----5-------5----------------
F#----------------------------------------------------------------------
C#----------------------------------------------------------------------
G#----------------------------------------------------------------------
D#----------------------------------------------------------------------


D#-4/5---5---4h5p4-5p4-5p4-------------------4--------------------------
A#-------------------------6p5-3---5h6---6-----5-------5----------------
F#----------------------------------------------------------------------
C#----------------------------------------------------------------------
G#----------------------------------------------------------------------
D#----------------------------------------------------------------------


D#-5-/8---8---------7-7---7--h5-5---5-5---5---5-4---4-4-5-7-8-----------
A#----------------------------------------------------------------------
F#----------------------------------------------------------------------
C#----------------------------------------------------------------------
G#----------------------------------------------------------------------
D#----------------------------------------------------------------------



D#-8-8---8--p7-7---7-7---7--h5-5---5-5---5---4-5-4-5-4-5-4--------------
A#---------------------------------------------------------6p5-3---5h6--
F#----------------------------------------------------------------------
C#----------------------------------------------------------------------
G#----------------------------------------------------------------------
D#----------------------------------------------------------------------


D#-----4----------------------------------------------------------------
A#-6-----5--------------------------------------------------------------
F#----------------------------------------------------------------------
C#----------------------------------------------------------------------
G#----------------------------------------------------------------------
D#----------------------------------------------------------------------


D#---------------------------7--------------7-8-10-----10---10---12-8---
A#-5-/-10---10-----10---10-----9-----9---10-----------------------------
F#----------------------------------------------------------------------
C#----------------------------------------------------------------------
G#----------------------------------------------------------------------
D#----------------------------------------------------------------------


D#-----------------7--------------7-8-10-----10---10---12-8-------------
A#-------10---10-----9-----9---10---------------------------------------
F#-----9----------------------------------------------------------------
C#----------------------------------------------------------------------
G#----------------------------------------------------------------------
D#----------------------------------------------------------------------


D#---------8\7-7----7-----------------------7\5-5-----------------------
A#-10-9-10-------10---8---------------8-7-8-------8-6-6-----------------
F#----------------------------------------------------------------------
C#----------------------------------------------------------------------
G#----------------------------------------------------------------------
D#----------------------------------------------------------------------


D#-----------5\4-4---4-------------------------------4------------------
A#-6---6-5-6-------6---5-----------5---3---3-6p5-5-6---5----------------
F#----------------------------------------------------------------------
C#----------------------------------------------------------------------
G#----------------------------------------------------------------------
D#----------------------------------------------------------------------


D#----------------------------------------------------------------------
A#---(--5---5-----5-----5---5--)----------------------------------------
F#----------------------------------------------------------------------
C#----------------------------------------------------------------------
G#----------------------------------------------------------------------
D#----------------------------------------------------------------------


D#----------------4---5---5/7---7---5---5-7(8)---7---5---7---5\3-5---5--
A#----5-5---5---6-------------------------------------------------------
F#----------------------------------------------------------------------
C#----------------------------------------------------------------------
G#----------------------------------------------------------------------
D#----------------------------------------------------------------------


D#-3---3-3---3---5-5/7---5\3-5---3---------5---4-----4------------------
A#-----------------------------------6---6---------6-----6---5---3------
F#----------------------------------------------------------------------
C#----------------------------------------------------------------------
G#----------------------------------------------------------------------
D#----------------------------------------------------------------------


D#-----------------4---5---5/7---7---5---5-7(8)---7---5-7---5\3---5-----
A#-3h5---5---5---5------------------------------------------------------
F#----------------------------------------------------------------------
C#----------------------------------------------------------------------
G#----------------------------------------------------------------------
D#----------------------------------------------------------------------


D#-5p3-3---3-3---3---5-5/7---5\3-5---3---------5---4-----4--------------
A#---------------------------------------6---6---------6-----6---5---3--
F#----------------------------------------------------------------------
C#----------------------------------------------------------------------
G#----------------------------------------------------------------------
D#----------------------------------------------------------------------


D#---------------4-------------------------------4----------------------
A#-3---3-6---6-----5-----------5\3-3---3-6---6-----5--------------------
F#----------------------------------------------------------------------
C#----------------------------------------------------------------------
G#----------------------------------------------------------------------
D#----------------------------------------------------------------------


D#----------7-7/8---7---5-4---5---5/7-----------------------------------
A#--5---5---------------------------------------------------------------
F#----------------------------------------------------------------------
C#----------------------------------------------------------------------
G#----------------------------------------------------------------------
D#----------------------------------------------------------------------


D#-8---8-8---8--p7-7---7-7---7--\5-5---5-5---5---5-4---4-4-5-7-8--------
A#----------------------------------------------------------------------
F#----------------------------------------------------------------------
C#----------------------------------------------------------------------
G#----------------------------------------------------------------------
D#----------------------------------------------------------------------


D#-8-8---8--p7-7---7-7---7--h5-5---5-5---5---4-5-4-5-4-5-4--------------
A#---------------------------------------------------------6p5-3---5h6--
F#----------------------------------------------------------------------
C#----------------------------------------------------------------------
G#----------------------------------------------------------------------
D#----------------------------------------------------------------------


D#-----4----------------------------------------------------------------
A#-6-----5--------------------------------------------------------------
F#----------------------------------------------------------------------
C#----------------------------------------------------------------------
G#----------------------------------------------------------------------
D#----------------------------------------------------------------------