20131026

THIN LIZZY WHISKEY IN THE JAR TAB (LEAD GUITAR IN THE OFFICIAL MUSIC VIDEO)

Brilliant lead guitar parts in Thin Lizzy - Whiskey In The Jar.
Take your Fender Stratocaster and you can immediately start to play this brilliant intro solo and all the other solos. Use standard tuning but with 433 Hz. TAB below.


THIN LIZZY WHISKEY IN THE JAR TAB

PDF >>

Intro

e-8~-----------8---8p7p5-7~------------7---7p5--------------------------
B----------------------------------------------8---8(10)~~~-------------
G-----------------------------------------------------------------------
D-----------------------------------------------------------------------
A-----------------------------------------------------------------------
E-----------------------------------------------------------------------


e-----------------------------------------------------------------------
B-8p5-------------------------------------------------------------------
G-----7p4---------------------------------------------------------------
D---------7p5~----------------------------------------------------------
A-----------------------------------------------------------------------
E-----------------------------------------------------------------------


e-----------------------------------------------------------------------
B----------------5h8p5--------------------------------------------------
G------------4h7-------7---/9~------------------------------------------
D-7p5---h7--------------------------------------------------------------
A-----------------------------------------------------------------------
E-----------------------------------------------------------------------



e-----------------------------------------------------------------------
B-----------------------------------------------------------------------
G-/7.---6-5-4-----------------------------------------------------------
D-------------7-6-5-4---------------------------------------------------
A---------------------7-6-5-4-------------------------------------------
E-----------------------------8-7-6-5~----------------------------------


Main solo 1

e-----------------------------------------------------------------------
B--------------7-8-------7---------7~-----------------------------------
G-7.---7---7h9-------9-------7-/-9--------------------------------------
D-----------------------------------------------------------------------
A-----------------------------------------------------------------------
E-----------------------------------------------------------------------


e-----------------------------------------------------------------------
B--------------7-8-------7---------7~-----------------------------------
G-7.---7---7h9-------9-------7-/-9--------------------------------------
D-----------------------------------------------------------------------
A-----------------------------------------------------------------------
E-----------------------------------------------------------------------


e-----------------------------------------------------------------------
B--------------7-8-------7---------7~-----------------------\\\---------
G-7.---7---7h9-------9-------7-/-9--------------------------------------
D-----------------------------------------------------------------------
A-----------------------------------------------------------------------
E-----------------------------------------------------------------------


e-----------------------------------------------------------------------
B-------------3---------------------------------------------------------
G-0---0---2h4-----0---2---0---2/4-0-------------------------------------
D-----------------------------------------------------------------------
A-----------------------------------------------------------------------
E-----------------------------------------------------------------------


Verse 1

e-----------------------------------------------------------------------
B-3-------3-------3-------5-------5p3-----0-------0-------0---3---------
G-----0-------0-------0-------0-------0-------0-------0-----------------
D-----------------------------------------------------------------------
A-----------------------------------------------------------------------
E-----------------------------------------------------------------------


e-----------------------------------------------------------------------
B-5-------5-------5-------5/7-----5-------0-------0-------0---3---------
G-----0-------0-------0-------0-------0-------0-------0-----------------
D-----------------------------------------------------------------------
A-----------------------------------------------------------------------
E-----------------------------------------------------------------------


e-----------------------------------------------------------------------
B-5-------5-------5-------7-------8-------8-------7-------5\3-----------
G-----0-------0-------0-------0-------0-------0-------0-------0---------
D-----------------------------------------------------------------------
A-----------------------------------------------------------------------
E-----------------------------------------------------------------------


e-----------------------------------------------------------------------
B-5-------7-------8-------8---7---5\3-----3-------3p0-----0-------------
G-----0-------0-------0---------------0-------0-------0-------0---------
D-----------------------------------------------------------------------
A-----------------------------------------------------------------------
E-----------------------------------------------------------------------


e-----------------------------------------------------------------------
B-3-------3-------3-------5-------3-------0-------0-------0---3---------
G-----0-------0-------0-------0-------0-------0-------0-----------------
D-----------------------------------------------------------------------
A-----------------------------------------------------------------------
E-----------------------------------------------------------------------


e-----------------------------------------------------------------------
B-5-------5-------5-------5/7-----5-------0-------0-------0---3---------
G-----0-------0-------0-------0-------0-------0-------0-----------------
D-----------------------------------------------------------------------
A-----------------------------------------------------------------------
E-----------------------------------------------------------------------


e-----------------------------------------------------------------------
B-5-------5-------5-------7-------8-------8-------7-------5\3-----------
G-----0-------0-------0-------0-------0-------0-------0-----------------
D-----------------------------------------------------------------------
A-----------------------------------------------------------------------
E-----------------------------------------------------------------------


e-----------------------------------------------------------------------
B-3-------5---/---8-------8---7----5\3-----3-------3p0------------------
G-----0-------0-------0----------------0-------0-------0---2-p-0--------
D-----------------------------------------------------------------------
A-----------------------------------------------------------------------
E-----------------------------------------------------------------------


Chorus 1

e-----------------------------------------------------------------------
B-----------------------------------------------------------------------
G-2-------2-------2-------2-------2h4p2p0---4-------4-------2h4p2p0-----
D-----4-------4-------4-------4-----------------5-------5---------------
A-----------------------------------------------------------------------
E-----------------------------------------------------------------------


e-----------------------------------------------------------------------
B---------5-------5-------5---------------7-------8-------8-------------
G-0---5-------5-------5-------4-/-5-/-7-------7-------9-------9---------
D-----------------------------------------------------------------------
A-----------------------------------------------------------------------
E-----------------------------------------------------------------------


e-----------------------------------------------------------------------
B-8-------8-------8-------8---------------13---\----------------5-------
G-----9-------9-------9------8-/-9-/-12-------------5-------5-----------
D-------------------------------------------------------5---------------
A-----------------------------------------------------------------------
E-----------------------------------------------------------------------


e-----------------------------------------------------------------------
B-3-------0-------------3---5p3-----------------------------------------
G-----0-------0---2/4-----------4---0-----------------------------------
D-----------------------------------------------------------------------
A-----------------------------------------------------------------------
E-----------------------------------------------------------------------



Main solo again

e-----------------------------------------------------------------------
B--------------7-8-------7---------7~-----------------------------------
G-7.---7---7h9-------9-------7-/-9--------------------------------------
D-----------------------------------------------------------------------
A-----------------------------------------------------------------------
E-----------------------------------------------------------------------


e-----------------------------------------------------------------------
B--------------7-8-------7---------7~-----------------------------------
G-7.---7---7h9-------9-------7-/-9--------------------------------------
D-----------------------------------------------------------------------
A-----------------------------------------------------------------------
E-----------------------------------------------------------------------


e----------------------7----------7-------------------------------------
B---------8---10(11)-------(11)-------10---8~---------------------------
G-7---9-----------------------------------------------------------------
D-----------------------------------------------------------------------
A-----------------------------------------------------------------------
E-----------------------------------------------------------------------


e-----------------------------------------------------------------------
B-------------3---------------------------------------------------------
G-0---0---2h4-----0---2---0---h2/4p0------------------------------------
D-----------------------------------------------------------------------
A-----------------------------------------------------------------------
E-----------------------------------------------------------------------


Verse 2

e-----------------------------------------------------------------------
B-----3-------3-------3-------5-------3-------0-------0-------0---3-----
G-0-------0-------0-------0-------0-------0-------0-------0-------------
D-----------------------------------------------------------------------
A-----------------------------------------------------------------------
E-----------------------------------------------------------------------


e-----------------------------------------------------------------------
B-5-------5-------5-------5/7-----5-------0-------0-------0---3---------
G-----0-------0-------0-------0-------0-------0-------0-----------------
D-----------------------------------------------------------------------
A-----------------------------------------------------------------------
E-----------------------------------------------------------------------


e-----------------------------------------------------------------------
B-5-------5-------5-------7-------8-------8-------7-------5\3-----------
G-----0-------0-------0-------0-------0-------0-------0-------0---------
D-----------------------------------------------------------------------
A-----------------------------------------------------------------------
E-----------------------------------------------------------------------


e-----------------------------------------------------------------------
B-5-------7-------8-------8---7---5\3-----3-----------------------------
G-----0-------0-------0---------------0-------0---4---0---3'---0--------
D-----------------------------------------------------------------------
A-----------------------------------------------------------------------
E-----------------------------------------------------------------------


e-----------------------------------------------------------------------
B-3-------3-------3-------5-------3-------0-------0-------0---3---------
G-----0-------0-------0-------0-------0-------0-------0-----------------
D-----------------------------------------------------------------------
A-----------------------------------------------------------------------
E-----------------------------------------------------------------------


e-----------------------------------------------------------------------
B-5-------5-------5-------5/7-----5-------0-------0-------0---3---------
G-----0-------0-------0-------0-------0-------0-------0-----------------
D-----------------------------------------------------------------------
A-----------------------------------------------------------------------
E-----------------------------------------------------------------------


e-----------------------------------------------------------------------
B-5-------5-------5-------7-------8-------8-------7-------5\3-----------
G-----0-------0-------0-------0-------0-------0-------0-----------------
D-----------------------------------------------------------------------
A-----------------------------------------------------------------------
E-----------------------------------------------------------------------


e-----------------------------------------------------------------------
B-3-------5---/---8-------8---7----5\3-----3-------3p0-----0------------
G-----0-------0-------0----------------0-------0-------0-------0--------
D-----------------------------------------------------------------------
A-----------------------------------------------------------------------
E-----------------------------------------------------------------------


Chorus 2

e-----------------------------------------------------------------------
B-----------------------------------------------------------------------
G-2-------2-------2-------2-------2h4p2p0---4-------4-------4-----------
D-----4-------4-------4-------4-----------------5-------5-------5-------
A-----------------------------------------------------------------------
E-----------------------------------------------------------------------


e-----------------------------------------------------------------------
B---------5-------5-------5---------------7-------8-------8-------------
G-0---5-------5-------5-------4-/-5-/-7-------7-------9-------9---------
D-----------------------------------------------------------------------
A-----------------------------------------------------------------------
E-----------------------------------------------------------------------


e-----------------------------------------------------------------------
B-8-------8-------8-------8---------------13---\---------------5--------
G-----9-------9-------9------8-/-9-/-12------------5-------5------------
D------------------------------------------------------5----------------
A-----------------------------------------------------------------------
E-----------------------------------------------------------------------


e-----------------------------------------------------------------------
B-5p3-----0-------------3---5p3-----------------------------------------
G-----0-------0---2/4-----------4---0-----------------------------------
D-----------------------------------------------------------------------
A-----------------------------------------------------------------------
E-----------------------------------------------------------------------


Guitar solo

e-----------------------------------------------------------------------
B--------------7-8-------7---------7~---------------///-----------------
G-7.---7---7h9-------9-------7-/-9--------------------------------------
D-----------------------------------------------------------------------
A-----------------------------------------------------------------------
E-----------------------------------------------------------------------


e-7---8---10---8---7h8p7------7-----------------------------------------
B------------------------10-------10---8---7---8---10---12---13---13(15)
G-----------------------------------------------------------------------
D-----------------------------------------------------------------------
A-----------------------------------------------------------------------
E-----------------------------------------------------------------------


e------10---12~------12---10---12-/-14(15)-------12.---10---12p10-12~---
B-12--------------------------------------------------------------------
G-----------------------------------------------------------------------
D-----------------------------------------------------------------------
A-----------------------------------------------------------------------
E-----------------------------------------------------------------------


e------10---10\8-----7--------------------------8p7p5-------------------
B-12-----------------------10---8-----7-----5---------8---6---5---------
G-----------------------------------------------------------------7---5-
D-----------------------------------------------------------------------
A-----------------------------------------------------------------------
E-----------------------------------------------------------------------


e-----------------------------------------------------------------------
B-----------------------------------------------------------------------
G-4-(5)-(4)-(5)-(4)-(5)-(4)-(5)-(4)-(5)-(4)-(5)-(4)-(5)-(4)~~~----------
D-----------------------------------------------------------------------
A-----------------------------------------------------------------------
E-----------------------------------------------------------------------


Verse 3

e-----------------------------------------------------------------------
B-----3-3-3-3-3-3-3-3-3-3-3-3-5-5-5-5-3-3-3-3-0-0-0-0-0-0-0-0-0-0-3-3---
G-0---------------------------------------------------------------------
D-----------------------------------------------------------------------
A-----------------------------------------------------------------------
E-----------------------------------------------------------------------


e-----------------------------------------------------------------------
B-5-5-5-5-5-5-5-5-5-5-5-5-7-7-7-7-5-5-5-5-0-0-0-0-0-0-0-0-0-0-3-3-------
G-----------------------------------------------------------------------
D-----------------------------------------------------------------------
A-----------------------------------------------------------------------
E-----------------------------------------------------------------------


e-----------------------------------------------------------------------
B-5-5-5-5-5-5-5-5-5-5-5-5-7-7-7-7-8-8-8-8-8-8-8-8-7-7-7-7-5-5-3-3-------
G-----------------------------------------------------------------------
D-----------------------------------------------------------------------
A-----------------------------------------------------------------------
E-----------------------------------------------------------------------


e-----------------------------------------------------------------------
B-3-3-3-3-5-5-5-5-8-8-8-8-8-8-7-7-5\3-3-3-3-3-3-3-3-3-3-3-3-3-3-3-------
G-----------------------------------------------------------------------
D-----------------------------------------------------------------------
A-----------------------------------------------------------------------
E-----------------------------------------------------------------------


e-----------------------------------------------------------------------
B-----3-3-3-3-3-3-3-3-3-3-3-3-5-5-5-5-3-3-3-3-0-0-0-0-0-0-0-0-0-0-3-3---
G-0-0-------------------------------------------------------------------
D-----------------------------------------------------------------------
A-----------------------------------------------------------------------
E-----------------------------------------------------------------------


e-----------------------------------------------------------------------
B-5-5-5-5-5-5-5-5-5-5-5-5-7-7-7-7-5-5-5-5-0-0-0-0-0-0-0-0-0-0-3-3-------
G-----------------------------------------------------------------------
D-----------------------------------------------------------------------
A-----------------------------------------------------------------------
E-----------------------------------------------------------------------


e-----------------------------------------------------------------------
B-5-5-5-5-5-5-5-5-5-5-5-5-7-7-7-7-8-8-8-8-8-8-8-8-7-7-7-7-5-5-3-3-------
G-----------------------------------------------------------------------
D-----------------------------------------------------------------------
A-----------------------------------------------------------------------
E-----------------------------------------------------------------------


e-----------------------------------------------------------------------
B-3-3-3-3-5-5-5-5-8-8-8-8-8-8-7-7-5\3-3-3-3-3-3-3-3p0-------------------
G-----------------------------------------------------0---///-----------
D-----------------------------------------------------------------------
A-----------------------------------------------------------------------
E-----------------------------------------------------------------------


Chorus 3

e-----------------------------------------------------------------------
B-----------------------------------------------------------------------
G-2-------2-------2-------2-------2-------2h4p2p0---4-------4-----------
D-----4-------4-------4-------4-------4-----------------5-------5-------
A-----------------------------------------------------------------------
E-----------------------------------------------------------------------


e-----------------------------------------------------------------------
B---------5-------5-------5---------------7-------8-------8-------------
G-0---5-------5-------5-------4-/-5-/-7-------7-------9-------9---------
D-----------------------------------------------------------------------
A-----------------------------------------------------------------------
E-----------------------------------------------------------------------


e-----------------------------------------------------------------------
B-8-------8-------8-------8---------------13---\---------------5--------
G-----9-------9-------9------8-/-9-/-12------------5-------5------------
D------------------------------------------------------5----------------
A-----------------------------------------------------------------------
E-----------------------------------------------------------------------


e-----------------------------------------------------------------------
B-5p3-----0-------------3---5p3-----------------------------------------
G-----0-------0---2/4-----------4---0-----------------------------------
D-----------------------------------------------------------------------
A-----------------------------------------------------------------------
E-----------------------------------------------------------------------


The End (from 3:25)

e-----------------------------------------------------------------------
B--------------7-8-------7---------7~-----------------------------------
G-7.---7---7h9-------9-------7-/-9--------------------------------------
D-----------------------------------------------------------------------
A-----------------------------------------------------------------------
E-----------------------------------------------------------------------


e-----------------------------------------------------------------------
B--------------7-8-------7---------7~-----------------------------------
G-7.---7---7h9-------9-------7-/-9--------------------------------------
D-----------------------------------------------------------------------
A-----------------------------------------------------------------------
E-----------------------------------------------------------------------


e-----------------------------------------------------------------------
B--------------7-8-------7---------7~-----------------------------------
G-7.---7---7h9-------9-------7-/-9--------------------------------------
D-----------------------------------------------------------------------
A-----------------------------------------------------------------------
E-----------------------------------------------------------------------


e-----------------------------------------------------------------------
B-------------3---------------------------------------------------------
G-0---0---2h4-----0---2---0---h2/4---0-------------------------0---0----
D-----------------------------------------------------------------------
A-----------------------------------------------------------------------
E-----------------------------------------------------------------------


e-----------------------------------------------------------------------
B------3--------------------------------3-------------------------------
G-0h2h4----0---2---0---2---0---0---0h2h4----0---2---0---2/4---0---0-----
D-----------------------------------------------------------------------
A-----------------------------------------------------------------------
E-----------------------------------------------------------------------


e-----------------------------------------------------------------------
B------3--------------------------------3-------------------------------
G-0h2h4----0---2---0---2---0---0---0h2h4----0---2---0---2/4---0---0-----
D-----------------------------------------------------------------------
A-----------------------------------------------------------------------
E-----------------------------------------------------------------------


e-----------------------------------------------------------------------
B------3--------------------------------3-------------------------------
G-0h2h4----0---2---0---2---0---0---0h2h4----0---2---0---<5>---0---0-----
D-----------------------------------------------------------------------
A-----------------------------------------------------------------------
E-----------------------------------------------------------------------


e-----------------------3-------------------------3---------------------
B------3---------------------------------3------------------3-----------
G-0h2h4----0---2---0h2h4----0---2---0h2h4----0h2h4-----0h2h4----0---2---
D-----------------------------------------------------------------------
A-----------------------------------------------------------------------
E-----------------------------------------------------------------------


e-----------------------------------------------------------------------
B------3--------------------------------3-------------------------------
G-0h2h4----0---2---0---2---0---0---0h2h4----0---2---0---2/4---0---0-----
D-----------------------------------------------------------------------
A-----------------------------------------------------------------------
E-----------------------------------------------------------------------


e-----------------------------------------------------------------------
B------3---------------3/5\3/5\3--------3-------------------------------
G-0h2h4----0---2---0---2/4\2/4\2---0h2h4----0---2---0---2/4---0---0-----
D-----------------------------------------------------------------------
A-----------------------------------------------------------------------
E-----------------------------------------------------------------------


e-----------------------------------------------------------------------
B------3----------------------------------------------------------------
G-0h2h4----0---2---0---2-p-0-----\\\\\\\\\--------/////////-------------
D-----------------------------------------------------------------------
A------------------------------------T-R-E-M-O-L-O----------------------
E-----------------------------------------------------------------------