20131122

IMANY YOU WILL NEVER KNOW TAB


Imany - You Will Never Know. Great song with a single acoustic guitar. 
CAPO on the 3rd fret with standard tuning.
See the TAB under the video.



IMANY YOU WILL NEVER KNOW TAB

PDF >>

Intro

e-----------0-----------------------0-----------------------------------
B-----1-----------1-----1-----1-----------1-----------------------------
G-------4-----------4-----------4-----------4---------------------------
D-----------------------------------------------0-----------------------
A-0-----------------------0---------------------------------------------
E-----------------------------------------------------------------------


e-----------------------------------------------------------------------
B-----------0-----------------------------------------------------------
G-----0-----------0-----0-----0-----0-----0-----0-----------------------
D-------4-----------4-----------4-----------4---------------------------
A-----------------------------------------------------------------------
E-0-----------------------0-----------3---------------------------------


e-----------0-----------------------------------------------------------
B-----1-----------1-----1-----1-----1-----1-----------------------------
G-------4-----------4-----------4-----------4---0-----------------------
D-----------------------------------------------------------------------
A-0-----------------------3-----------2---------------------------------
E-----------------------------------------------------------------------



e-----------------------------------------------------------------------
B-----------0-----------------------------------------------------------
G-----0-----------0-----0-----0-----0-----0-----0-----------------------
D-------4-----------4-----------4-----------4---------------------------
A-----------------------------------------------------------------------
E-0-----------------------0-----------3---------------------------------


Verse

e-----------0-----------------------------------------------------------
B-----1-----------1-----1-----1-----1-----1-----------------------------
G-------4-----------4-----------4-----------4---0-----------------------
D-----------------------------------------------------------------------
A-0-----------------------3-----------2---------------------------------
E-----------------------------------------------------------------------


e-----------------------------------------------------------------------
B-----------0-----------------------------------------------------------
G-----0-----------0-----0-----0-----0-----0-----0-----------------------
D-------4-----------4-----------4-----------4---------------------------
A-----------------------------------------------------------------------
E-0-----------------------0-----------3---------------------------------


e-----------0-----------------------------------------------------------
B-----1-----------1-----1-----1-----1-----1-----------------------------
G-------4-----------4-----------4-----------4---0-----------------------
D-----------------------------------------------------------------------
A-0-----------------------3-----------2---------------------------------
E-----------------------------------------------------------------------


e-----------------------------------------------------------------------
B-----------0-----------------------------------------------------------
G-----0-----------0-----0-----0-----0-----0-----0-----------------------
D-------4-----------4-----------4-----------4---------------------------
A-----------------------------------------------------------------------
E-0-----------------------0-----------3---------------------------------


e-----------0-----------------------0-----------------------------------
B-----1-----------1-----1-----1-----------1-----1-----------------------
G-------0-----------0-----------0-----------0---------------------------
D-----------------------------------------------------------------------
A-3-----------------------2---------------------------------------------
E-----------------------------------------------------------------------


e-----------0-----------------------0-----------------------------------
B-----1-----------1-----1-----1-----------1-----0-----------------------
G-------0-----------0-----------0-----------0---------------------------
D-----------------------------------------------------------------------
A-0-----------------------0---------------------------------------------
E-----------------------------------------------------------------------


e-------------0h2p0-------2---------------------------------------------
B-------3-----------3-----3---------------------------------------------
G-----2-----2-----------2-2---------------------------------------------
D-0-----------------------0---------------------------------------------
A-0---------------------------------------------------------------------
E-----------------------------------------------------------------------


Chorus

e-0----------------0---------------2--------------2---------------------
B-0----------------1---------------3--------------3---------------------
G-0----------------2---------------2--------------4---------------------
D-2----------------2---------------0--------------4---------  4x  ------
A-2----------------0---------------0--------------2---------------------
E-0---------------------------------------------------------------------

Strumming here: down   up-down(x)    up-down    up down(x)    up



Bridge

e-0---------------------------------0-----------------------------------
B-1---------------------------------0-----------------------------------
G-2---------------------------------0-----------------------------------
D-2---------------------------------2----------------------  2x  -------
A-0---------------------------------2-----------------------------------
E-----------------------------------0-----------------------------------


e-----------0-----------------------0-----------------------------------
B-----1-----------1-----1-----1-----------1-----1-----------------------
G-------0-----------0-----------0-----------0---------------------------
D-----------------------------------------------------------------------
A-3-----------------------2---------------------------------------------
E-----------------------------------------------------------------------


e-----------0-------------2.----2---------------------------------------
B-----1-----------1-------3.----3---------------------------------------
G-------0-----------0-----4.----4---------------------------------------
D-----------------------0-4.----4---------------------------------------
A-0-----------------------2.----2---------------------------------------
E-----------------------------------------------------------------------