20131125

SKAMIGO SENDIRI SOLO TAB


There is a nice guitar solo about 2:11 - 2:45 in Skamigo - Sendiri.
See the TAB under the video.



SKAMIGO SENDIRI SOLO TAB

PDF >>

e-----------------------------------------------------------------------
B------------------10----10---------------------------------------------
G-----7-9-7-9/11------11----11\9-7-9-7----------------------------------
D-7/9-------------------------------------------------------------------
A-----------------------------------------------------------------------
E-----------------------------------------------------------------------


e-----------------------------------------------------------------------
B-10/12---10-------------------10---------------------------------------
G------------9/11-9-7---9/11--------11\9-7-9-7--------------------------
D---------------------9----------------------------8.-------------------
A-----------------------------------------------------------------------
E-----------------------------------------------------------------------


e-----------------------------------------------------------------------
B----------------10----10h12---10-12------------------------------------
G-----7-9-9/11------11--------------------------------------------------
D-7h9-------------------------------------------------------------------
A-----------------------------------------------------------------------
E-----------------------------------------------------------------------



e-----------------------------------------------------------------------
B-14---14-14---14-14-14-15---15-15---15-15-15-17---17-17---17-17-17-----
G-----------------------------------------------------------------------
D-14---14-14---14-14-14-16---16-16---16-16-16-17---17-17---17-17-17-----
A-----------------------------------------------------------------------
E-----------------------------------------------------------------------


e-------------------9-10-9-7-9-7----7-----------------------------------
B-15---15-15-15------------------10---10-8-7-8-10-----------------------
G-0----0--0--0----------------------------------------------------------
D-16---16-16-16---------------------------------------------------------
A-----------------------------------------------------------------------
E-----------------------------------------------------------------------


e-----------------------------------------------------------------------
B-x-x-10h12-x-8h10-x-7h8------------------------------------------------
G------------------------x-9h11-x-7h9-7---------------------------------
D-----------------------------------------------------------------------
A-----------------------------------------------------------------------
E-----------------------------------------------------------------------


e-----------------------------------------------------------------------
B-x-x-7h8-x-10-x-x-7h8-x-10-x-x-7---x-x-7h8-x-10-x-x-7h8-x-10-x-x-7-----
G-----------------------------------------------------------------------
D-----------------------------------------------------------------------
A-----------------------------------------------------------------------
E-----------------------------------------------------------------------


e-----------------------------------------------------------------------
B-10-12-10----10--------------------------------------------------------
G----------11----11-9-11-9----------------------------------------------
D--------------------------12-9-11-12---\-------------------------------
A-----------------------------------------------------------------------
E-----------------------------------------------------------------------


e------------12------------12-------------------------------------------
B-x-x-10---x-12-x-x-10---x-12-x-x----10-12.-----------------------------
G-x-x-10---x-12-x-x-10---x-12-x-x-11------------------------------------
D-----------------------------------------------------------------------
A-----------------------------------------------------------------------
E-----------------------------------------------------------------------


e-----------------------------------------------------------------------
B-14---14-14---14-14-14-15---15-15---15-15-15-17---17-17---17-17-17-----
G-----------------------------------------------------------------------
D-14---14-14---14-14-14-16---16-16---16-16-16-17---17-17---17-17-17-----
A-----------------------------------------------------------------------
E-----------------------------------------------------------------------


e-----------------------------------------------------------------------
B-15---15-15-15---\-----------------------------------------------------
G-----------------------------------------------------------------------
D-16---16-16-16---\-----------------------------------------------------
A-----------------------------------------------------------------------
E-----------------------------------------------------------------------