20131209

BILLY IDOL LET IT SNOW TAB


Billy Idol made a cool X'mas album named Happy Holidays a couple of years ago.
Let it snow is one of the cool songs. Brian Tichy plays a nice guitar solo in the middle. See the chords and the solo TAB below. CAPO on the 8th fret.



BILLY IDOL LET IT SNOW TAB                                                              

PDF >>

Chords

  F       C7'    'Fdim'     Gm    'Gm maj7'    D7       G7     C7
e-----------------------------------------------------------------------
B-10------11------9---------11------11------------------12--------------
G-10------9-------7---------12------11---------11-------10-----9--------
D-10------8-------9---------12------12---------10-------12-----8--------
A-8-------10------8---------10------10---------12-------10-----10-------
E---------8------------------------------------10--------------8--------




Nice intro           (CAPO on the 8th)

e----------------8-----------------------------8------------------------
B-------------10-----10---------------------10-----10-------------------
G--------12-------------12-------------12-------------12----------------
D-----15---------------------15-----15---------------------15-----------
A-8-----------------------------8---------------------------------------
E-----------------------------------------------------------------------


e----------------8-----------------------------8------------------------
B-------------10-----10---------------------10-----10-------------------
G--------12-------------12-------------12-------------12----------------
D-----15---------------------15-----15---------------------15-----------
A-8-----------------------------8---------------------------------------
E-----------------------------------------------------------------------



Verse

F C7' F F / F Fdim C7 C7' /

Gm 'Gm maj7' Gm Gm / C7' C7' F F /



Chorus

C7 C7 C7 C7 / D7 G7 C7 C7 /

C7 C7 C7 C7 / D7 G7 C7 C7' /



Solo

e-----------------------------------------------------------------------
B-----------------------------------------------------------------------
G-12-/-14.--14-12.----10.----9.----9/10---------------------------------
D---------------------------------------10~-----------------------------
A-----------------------------------------------------------------------
E-----------------------------------------------------------------------


e-----------------------------------------------------------------------
B-----------------------------------------------------------------------
G-10-/-12~----------10-/-12~-----------10-9-----------------------------
D-------------------------------------------10~-------------------------
A-----------------------------------------------------------------------
E-----------------------------------------------------------------------


e-----------------------------------------------------------------------
B-13-/-15.--15-13.----11.----10-----------------------------------------
G-------------------------------12~-------------------------------------
D-----------------------------------------------------------------------
A-----------------------------------------------------------------------
E-----------------------------------------------------------------------


e-12-10.--8-----8-------------------------------------------------------
B-----------------11.--10~----10----------------------------------------
G--------------------------------12.--10~-------------------------------
D-----------------------------------------------------------------------
A-----------------------------------------------------------------------
E-----------------------------------------------------------------------


e-----------------------------------------------------------------------
B---------------10--------------11/13.----------------------------------
G----9.--10-12.----12-----9.------------10/12~--------------------------
D-10--------------------------------------------------------------------
A-----------------------------------------------------------------------
E-----------------------------------------------------------------------


e-----------------------------------------------------------------------
B---------------10--------------11/13.----------------------------------
G----9.--10-12.----12-----9.------------10/12~--------------------------
D-10--------------------------------------------------------------------
A-----------------------------------------------------------------------
E-----------------------------------------------------------------------



SEE ALSO

WINTER WONDERLAND TAB by Billy Idol