20131211

GABRIELLA QUEVEDO ALL I WANT FOR CHRISTMAS IS YOU TAB (MARIAH CAREY)

Another brilliant fingerstyle acoustic guitar cover by Gabriella Quevedo. 
The song is: All I Want For Christmas Is You by Mariah Carey.
She is using half step down tuning.
See the TAB under the video.


GABRIELLA QUEVEDO ALL I WANT FOR CHRISTMAS IS YOU TAB

GP5 + GP6 + PDF >>

Part 1

eb---------------2-3---p2---p0---------5---3---3-2---3---p2---p0--------
Bb-------0---3-----3-------------3-----3---------3-----------------3----
Gb---0------------------------------------------------------------------
Db---0------------------------------------------------------------------
Ab-------------------------------------2--------------------------------
Eb---3------------------------------------------------------------------


eb-----------3---5-7---5---3-------------3-5---3---5---p3---------------
Bb-------5---------5-----------5-----4-------------4--------4-----------
Gb-------5---------5-----------------5-------------5--------5-----------
Db----------------------------------------------------------------------
Ab---3-------------3-----------------3-------------3--------------------
Eb----------------------------------------------------------------------


eb---3---5---2---3-0---2.------------3---5---2---3-0---2.---------------
Bb---3-------3-------------4---------5-------5-------------4------------
Gb---0---------------------4---------0---------------------5------------
Db-------------------------4-------------------------------5------------
Ab---------------------------2-------------------------------3----------
Eb---3-------------------------------0----------------------------------



eb-------0---3-----8-----------------7---5---3-----------5--------------
Bb---3---------3.--9-----------------5-----------5---4------------------
Gb---0-------------9-----------------5---------------5------------------
Db----------------------------------------------------------------------
Ab-----------------------------------3---------------3------------------
Eb---3---------------0--------------------------------------------------


eb---7------------------------------------------------------------------
Bb---4------------------------------------------------------------------
Gb---5------------------------------------------------------------------
Db----------------------------------------------------------------------
Ab---3------------------------------------------------------------------
Eb----------------------------------------------------------------------


Part 2

eb---3-----3---3-3---3-----0-----0-0---0--------------------------------
Bb---3-----3---3-3---3-----0-----0-0---0--------------------------------
Gb---0-----0---0-0---0-----0-----0-0---0--------------------------------
Db---0-----0---0-0---0-----2-----2-2---2--------------------------------
Ab---2-----2---2-2---2-----2-----2-2---2--------------------------------
Eb---3---3-3---3-3---3-0---0-0---0-0---0--------------------------------


eb-------0-----0-0---0-0------------------------------------------------
Bb-------1-----1-1---1-----x-3---3-3---3--------------------------------
Gb-------0-----0-0---0-----x-2---2-2---2--------------------------------
Db-------2-----2-2---2-0---x-0---0-0---0--------------------------------
Ab---3---3-3---3-3---3--------------------------------------------------
Eb----------------------------------------------------------------------



DOWNLOAD THIS TAB IN GUITAR PRO 


  • click 'Free Download'
  • add your e-mail address
  • you will get an e-mail with your download links (in a few seconds)
  • download the Guitar Pro 6 tab + GP5 + PDF for free
  • and that's all ...


Guitar Pro: a complete workshop for guitarists at an affordable price