20131227

GAME OF THRONES THEME TAB (ACOUSTIC GUITAR COVER BY CHARLIE PARRA DEL RIEGO)

Cool and easy acoustic guitar cover of the Game of Thrones theme song played by Charlie Parra del Riego. See the TAB made directly to this version under the video.
The 2nd guitar line is also tabbed below.



GAME OF THRONES THEME TAB

GP5 + GP6 + PDF >>


Part 1

e-----------------------------------------------------------------------
B-----------------------------------------------------------------------
G-----------------------------------------------------------------------
D-7-------3-5-7-------3-5-7-------3-5-7-------3-5-----------------------
A-----5-----------5-----------5-----------5-----------------------------
E-----------------------------------------------------------------------


e-----------------------------------------------------------------------
B-----------------------------------------------------------------------
G-----------------------------------------------------------------------
D-7-------4-5-7-------4-5-7-------4-5-7.--------------------------------
A-----5-----------5-----------5-----------------------------------------
E-----------------------------------------------------------------------


Part 2

e-----------------------------------------------------------------------
B-----------------------------------------------------------------------
G-----------------------------------------------------------------------
D-7-----------------------3-5-7---------------3-5-----------------------
A-------------5-----------------------5---------------------------------
E-----------------------------------------------------------------------



e-----------------------------------------------------------------------
B-----------------------------------------------------------------------
G-----------------------------------------------------------------------
D-----------------------------------------------------------------------
A-7---0---3-5-7---0---3-5-7---0---3-5-7---------------------------------
E-----------------------------------------------------------------------


e-----------------------------------------------------------------------
B-----------------------------------------------------------------------
G-----------------------------------------------------------------------
D-5-----------------------3-2-5---------------3-2-----------------------
A-------------3-----------------------3---------------------------------
E-----------------------------------------------------------------------


e-----------------------------------------------------------------------
B-----------------------------------------------------------------------
G-----------------------------------------------------------------------
D-0---------------------------------------------------------------------
A---------1-3-5-------1-3-5-------1-3-5---------------------------------
E-----3-----------3-----------3-----------------------------------------


e-----------------------------------------------------------------------
B-----------------------------------------------------------------------
G-----------------------------------------------------------------------
D-7-----------------------3-5-7---------------3-5-----------------------
A-------------5-----------------------5---------------------------------
E-----------------------------------------------------------------------


e-----------------------------------------------------------------------
B-----------------------------------------------------------------------
G-----------------------------------------------------------------------
D-----------------------------------------------------------------------
A-7---0---3-5-7---0---3-5-7---0---3-5-7---------------------------------
E-----------------------------------------------------------------------


e-----------------------------------------------------------------------
B-----------------------------------------------------------------------
G-----------------------------------------------------------------------
D-5-----------------------3-2-5---------------3-2-----------------------
A-------------3-----------------------3---------------------------------
E-----------------------------------------------------------------------


e-----------------------------------------------------------------------
B-----------------------------------------------------------------------
G-----------------------------------------------------------------------
D-0---------------------------------------------------------------------
A-----0---1-3-5---0---1-3-5---0---1-3-5---------------------------------
E-----------------------------------------------------------------------



Part 3

e-----------------------------------------------------------------------
B-----------------------------------------------------------------------
G-14----------------------10-12-14---------------10-12------------------
D-------------12------------------------12------------------------------
A-----------------------------------------------------------------------
E-----------------------------------------------------------------------


e-----------------------------------------------------------------------
B-----------------------------------------------------------------------
G-9--------------9--------------9--------------9------------------------
D----------10-12----------10-12----------10-12--------------------------
A-----12-------------12-------------12----------------------------------
E-----------------------------------------------------------------------


e-----------------------------------------------------------------------
B-----------------------------------------------------------------------
G-12----------------------9-----10-----9--\--5--------------------------
D-------------10--------------------------------------------------------
A-----------------------------------------------------------------------
E-----------------------------------------------------------------------


e-----------------------------------------------------------------------
B-----------------------------------------------------------------------
G-7------------7------------7------------7------------------------------
D-----7---8-10-----7---8-10-----7---8-10--------------------------------
A-----------------------------------------------------------------------
E-----------------------------------------------------------------------


Part 4

e-10-------6-8-10-------5-6-8-------5-6-8-------------------------------
B------6------------6-----------6-----------6---------------------------
G-----------------------------------------------------------------------
D-----------------------------------------------------------------------
A-----------------------------------------------------------------------
E-----------------------------------------------------------------------


e-3-5-6-------3-5-6-----------------------------------------------------
B---------3-----------3---6-8-10-------6-8-10---------------------------
G----------------------------------7------------7-----------------------
D-----------------------------------------------------------------------
A-----------------------------------------------------------------------
E-----------------------------------------------------------------------


e-----------------------------------------------------------------------
B-6-8-6-------6-8-6-------6.----8-6-8-5-8---10-8-10-6-10----------------
G-----------------------------5-----------6--------------7--------------
D---------8-----------8-------------------------------------------------
A-----------------------------------------------------------------------
E-----------------------------------------------------------------------


e---5-10---------------10p5-------5-------------------------------------
B--6------------------------6---6---------------------------------------
G-7---------------------------7-----7-----------------------------------
D-----------------------------------------------------------------------
A-----------------------------------------------------------------------
E-----------------------------------------------------------------------


Part 5

e-10-------6-8-10-------5-6-8-------5-6-8-------------------------------
B------6------------6-----------6-----------6---------------------------
G-----------------------------------------------------------------------
D-----------------------------------------------------------------------
A-----------------------------------------------------------------------
E-----------------------------------------------------------------------


e-3-5-6-------3-5-6-----------------------------------------------------
B---------3-----------3---6-8-10-------6-8-10---------------------------
G----------------------------------7------------7-----------------------
D-----------------------------------------------------------------------
A-----------------------------------------------------------------------
E-----------------------------------------------------------------------


e-----------------------------------------------------------------------
B-6-8-6-------6-8-6-------6.--5-----------------------------------------
G-----------------------------------------6-----------7-----------------
D---------8-----------8-------------------------------------------------
A-----------------------------------------------------------------------
E-----------------------------------------------------------------------


e-----------------------------------------------------------------------
B-------------------------------<7>-------------------------------------
G-<7>-------------------------------------------------------------------
D-<7>-------------------------------------------------------------------
A-----------------------------------------------------------------------
E-----------------------------------------------------------------------



The 2nd guitar line is played in DROPPED D tuning


Part 1

D5 / D5 / D5 / D5 / D / D / D /


Part 2

D5 / D5 / A5 / A5 / C5 / C5 / G5 / G5 /
D5 / D5 / A5 / A5 / C5 / C5 / D5 / D5 /


Part 3

D / D / Am / Am / C / C / D / D /


Part 4

Bb5 / F5 / G5 / D5 / Bb5 / C5 A5 / D5 / D5 /


Part 5

Bb5 / F5 / G5 / D5 / Bb5 / C5 A5 / D5 /




  D5    A5    C5    G5     D     Am     C     Bb5    F5
e--------------------------------0------0-------------------------------
B--------------------------3-----1------1-------------------------------
G--------------------------2-----2------0-----3-------------------------
D-0-----------5------------0-----2------2-----3------3------------------
A-0-----7-----3-----5------0-----0------3-----1------3------------------
D-0-----7-----------5------0-------------------------3------------------


 


DOWNLOAD THIS TAB IN GUITAR PRO



  • click 'Free Download'
  • add your e-mail address 
  • you will get an e-mail with your download link (in a few seconds)
  • download the Guitar Pro 6 tab + GP5 + PDF
  • and that's all ...


SEE ALSO