20140114

KAKKMADDAFAKKA SAVIOUR TAB (SIRACUSA VERSION)


Stian playing Saviour on Erlend's porch - says the video description.
The song is: Kakkmaddafakka - Saviour.
See the TAB under the video.



KAKKMADDAFAKKA SAVIOUR TAB

PDF >>

Intro

e---------3-3---2---0---------------------3-3---2---0-------------------
B-----------0---0---0-----0---3---1-----------------------1---3---------
G-------0-----0-----------------------------------------------0---------
D-----------------------0---------------2-----2---------2---------------
A---------------------------------0-------------------------------------
E-3---------------------------------------------------------------------


e---------3-3---2---0---------------------3---------3---3---3-3-3-------
B-0---------0---0---0-----0h1-3---1-----------1-----1---1---1-1-1-------
G-0-----0-------------------------------0-------0-2-2---2---2-2-2-------
D-------------0---------0-------------------------0-0---0---0-0-0-------
A---------------------------------0---------------0-0---0---0-0-0-------
E-3---------------------------------------------------------------------


e---------3-3---2---0---------------------3-3---2---0-------------------
B-----------0---0---0-----0---3---1-----------------------1/3---1-------
G-------0-----0-------------------------0-------------------------------
D-----------------------0---------------------2---------2-2/4---2-------
A---------------------------------0-------------------------------------
E-3---------------------------------------------------------------------



e-----------------------------------------------5-----------------------
B-0-------0-1.--0.--1.--0.--1---1-1/3.--5.--5.--5-------5---------------
G---------0-0.--0.--0.--0.--0---0---------------5---5-------5-----------
D-------0-0-2.--0.--2.--0.--2---2-2/4.--5.--5.--0-----------------------
A---------------------------------0-------------------------------------
E-3---------------------------------------------------------------------


Verse 1

e-----------------------------------------------------------------------
B-0-------0---------------0-------1-------1---------------1-------------
G-0-------0---------------0-------2-------2---------------2-------------
D-----0-----------------0-----0-------------------------2-----2---------
A---------------------------------0-------------------------------------
E-3---------------------------------------------------------------------


e-----------------------------------------------------------------------
B-0-------0---------------0-------1/3.--5.--7.--8.--10------------1-----
G-0-------0---------------0---------------------------------------0-----
D-----0-----------------0-----0---2/4.--5.--7.--9.--11-----<12>---------
A---------------------------------0-------------------------------------
E-3---------------------------------------------------------------------


e-----------------------------------------------------------------------
B-0-------0---------------0---------------1---------------1-------------
G-0-------0-----------------0-------------------------------2-----------
D---------------------0---------0-----2---------------2---------2-------
A---------------------------------0-------------------------------------
E-3---------------------------------------------------------------------


e-----------------------------------------------------------------------
B---------0---------------0---------------1---------------1-------------
G-------0-------------------0-----------2-------------------2-----------
D-----0---------------0---------0-----2---------------2---------2-------
A---------------------------------0-------------------------------------
E-3---------------------------------------------------------------------


e-----------------------------------------------------------------------
B---------3.----3.--------3.----3.--------5.----5.--------5.----5.------
G---------4.----4.--------4.----4.--------5.----5.--------5.----5.------
D---------5.----5.--------5.----5.--------7.----7.--------7.----7.------
A-----------------------------------------------------------------------
E-3.--3---------------3---------------5---------------5-----------------


e-------------------------3---------------3---3-3---3---3-3-3-3-3-------
B---------0---------------0-------1-------1---1-1---1---1-1-1-1-1-------
G---------0-------------------0---0---0---0---0-0---2---2-2-2-2-2-------
D---------------0-----0-------------------2---2-2-0-----0-0-0-0-0-------
A---------------------------------0-------------------------------------
E-----3-----------3-----------------------------------------------------


Chorus

e-----------------------------------------3-3---2---0-------------------
B-0-------0---------------0-------------------------------1-------------
G-0-------0---------------0-------------0---------------------0---------
D-0-------------------0-------0---------------2---------2---------------
A---------------------------------0-------------------------------------
E-3---------------------------------------------------------------------


e---------3-3---2---0---------------------3---3-3---3-3-3-3-3-3-3-------
B-----------0---0---0-----0---------------1---1-1---1-1-1-1-1-1-1-------
G-------0---------------------0-------0---0---0-0---2-2-2-2-2-2-2-------
D-------------0---------0-----------------2---2-2-0---0-0-0-0-0-0-------
A---------------------------------0-------------------------------------
E-3---------------------------------------------------------------------


e---------3-3---2---0---------------------3-3---2---0-------------------
B-----------0-------------0---------------1-1-------------1-------------
G-------0-----0---------------0-------0---0-0-0---------------0---------
D-----------------------0-------------------------------2---------------
A---------------------------------0-------------------------------------
E-3---------------------------------------------------------------------


e-----------------------------------------3---------3---3---3-3-3-------
B---------3-----3---3-----3-------1-----------1-----1---1---1-1-1-------
G-------2-----2---------2-----2---------0-------0---2---2---2-2-2-------
D-------------------------------------------------0-----0---0-0-0-------
A-2-------------------------------0-------------------------------------
E-----------------------------------------------------------------------