20140108

PHIL COLLINS EASY LOVER TAB (SOLO)


An evergreen song with a brilliant guitar solo by Phil Collins and Philip Bailey.
Applevinus teaches us clearly how to play the solo of Easy Lover with his Epiphone guitar. TAB under the video.



PHIL COLLINS EASY LOVER SOLO TAB

PDF >>

e--------13.--x-13---\--------------------------------------------------
B-13.--x-13.--x-13---\----------9-----11.-------------------------------
G-13.--x--------------------/10-----------------------------------------
D-----------------------------------------------------------------------
A-----------------------------------------------------------------------
E-----------------------------------------------------------------------


e---------------------11--------8---------------------------------------
B-----9-11~----9----9----11----------9---\------------------------------
G----------------10---------------10------------------------------------
D-/10-------------------------------------------------------------------
A-----------------------------------------------------------------------
E-----------------------------------------------------------------------


e-----------------------------------------------------------------------
B---------13.--x-13.--x-13---\------------------------------------------
G---------13.--x-13.--x-13---\------------------------------------------
D-3---/-----------------------------6-8-8~----6---6---------------------
A--------------------------------/8-------------8---8---/---------------
E-----------------------------------------------------------------------



e------------------------------------------------11(13)-----------------
B-13.--x-13.--x-16---\--------9-11-11~----9----9------------------------
G-13.--x-13.--x-13---\----/10---------------10--------------------------
D-----------------------------------------------------------------------
A-----------------------------------------------------------------------
E-----------------------------------------------------------------------


e-11p8----8------------8------------------------------------------------
B------11---11(13)-------11p9----9-11-11(13)(11)p9----------------------
G-----------------------------10-------------------10.------------------
D-----------------------------------------------------------------------
A-----------------------------------------------------------------------
E-----------------------------------------------------------------------


e-----------------------------------------------------------------------
B---------------------------------------------------------8-9p8-11-9p8--
G-10(12)(10)p8-------------------------------------8-10-----------------
D--------------10p8-10.---8-----------------8-10------------------------
A-----------------------------11-10-8-10-11-----------------------------
E-----------------------------------------------------------------------


e-----------------------------------------------------------------------
B-13~---11-9-14~---13-11-16~---------------13-16-16(18).---16(18)-------
G-----------------------------------------------------------------------
D-----------------------------------------------------------------------
A-----------------------------------------------------------------------
E-----------------------------------------------------------------------


e-13-------------------------------------------------16-----------------
B----16-13.-----------13--------------------------13----16-18---18~-----
G-------------15(17).-----------------13--15(17)------------------------
D--------------------------------/15------------------------------------
A-----------------------------------------------------------------------
E-----------------------------------------------------------------------


e-------16-18-18(20)--------18(20)---18(20)---(18)~---------------------
B-18-18-----------------------------------------------------------------
G-----------------------------------------------------------------------
D-----------------------------------------------------------------------
A-----------------------------------------------------------------------
E-----------------------------------------------------------------------