20140105

THE FRAY HOW TO SAVE A LIFE TAB (FINGERSTYLE COVER BY THE STRAY ANT)

Nice fingerstyle guitar cover played by TheStrayAnt.
The song is: The Fray - How To Save A Life.
Standard tuning with CAPO on the 3rd fret.
See the TAB under the video.


THE FRAY HOW TO SAVE A LIFE FINGERSTYLE TAB

GP5 + GP6 + PDF >>

Part 1                     - CAPO on the 3rd -

e-----------------------------------------------------------------------
B-----------------------------------------------------------------------
G-0-------------------------------2-------------------------------------
D-----0-------0-------0-------0-------0-------0-------0-------0---------
A---------2---------------2---------------2---------------2-------------
E-3---------------3---------------2---------------2---------------------


e-----------------------------------------------------------------------
B-0---------------------------------------------------------------------
G-------------------------------------------------2---------------------
D-----0-------0-------0-------0---4---------------------------0---------
A---------2---------------2-------------------------------2-------------
E-3---------------3---------------2---------------2---------------------


Part 2

e-----------------------------------------------------------------------
B-----------------------------------------------------------------------
G-----------------------------------------------------------------------
D---------0---0-------0-------0-----------------------------------------
A-------------------------------------3-------3-------2---2-------------
E-3-------3-------3-------3-------2-------2-------2-------2-------------



e-----------------------------------------------------------------------
B-----------------------------------------------------------------------
G-----------------------------------------------------------------------
D---------0---0-------0-------0-----------------------------------------
A-------------------------------------3-------3-------2-----------------
E-0-------0-------0-------0-------2-------2-------2-------3-------------


e-----------------------------------------------------------------------
B-----------------------------------------------------------------------
G-----------------------------------------------------------------------
D---------0---0-------0-------0-----------------------------------------
A-----2-------2-------2-------2-------3-----------3---2---2-------------
E-3-------3-------3-------3-------2-------2-------2-------2-------------


e-----------------------------------------------------------------------
B-----------------------------------------------------------------------
G-----------------------------------------------------------------------
D-----------------------------------------------------------------------
A---------2-------2-------2---2-------0-----------0---2-----------------
E-0-------0-------0-------0-------2-------2-------2-------2---3---------


Part 3

e-----------------------------------------------------------------------
B-----------------------------------------------------------------------
G---------0---0---0-------0---0-------2-------2-------0---0-------------
D-----------------------------------------------------------------------
A-----2-------2-------2-------2-------0-------0-------0-------0---------
E-3-------3-------3-------3-------2-------2-------2-------2-------------


e-----------------------------------------------------------------------
B-----------------------------------------------------------------------
G---------0---0-------0-------0-------2-------2-------0-------0---------
D-----------------------------------------------------------------------
A-2---2-------2-------2-------2-------0-------0-------0-------0---------
E---------0-------0-------0-------2-------2-------2-------2-------------



DOWNLOAD THE COMPLETE TAB HERE
 




  • click 'Buy Now' and send $6  (or 'Add to Cart' if you want to buy more tabs)
  • add your e-mail address
  • you will get a confirmation e-mail with your download links (in a few seconds)
  • download the full Guitar Pro 6 tab + GP5 + PDF
  • then start to learn the full song - that's all ...

IF YOU DIDN'T GET YOUR DOWNLOAD LINK, PLEASE CONTACT US HERE >>

SEND YOUR GUITAR TAB REQUEST HERE >>
MORE ON GUITAR TABS A-Z >>

Guitar Pro: a complete workshop for guitarists at an affordable price