20140316

BOB MARLEY CHANCES ARE TAB


Chances Are is one of Bob Marley's early songs from the album 'Trenchtown Rock'
Use the Capo on the 1st fret.
See the TAB under the video.



BOB MARLEY CHANCES ARE TAB

PDF >>

e-----------------------------------------------------------------------
B-----------------------------------------------------------------------
G-----------------------------------------------------------------------
D-----------------------------------------------------------------------
A----0--2---------------------------------------------------------------
E-3---------------------------------------------------------------------


e----------0-----------------------------------------------------1------
B-------1-----1--------------0-----------------1--------------0---------
G----0--------------------0-----0-----------2--------------0------------
D----------------------2-----------------3--------3---------------------
A-3--------------3--2-----------------------------------------------2---
E----------------------------------0--1--------------1--3--------------3


Chances are ...
e----------0------------------------------------------------------------
B-------1-----1--------------0-----------------1-----------------0------
G----0--------------------0-----0-----------2-----------------0---------
D----------------------2-----------------3--------3--------0------------
A-3--------------3--2-----------------------------------------------2---
E----------------------------------0--1--------------1--3--------------3



e----------0-----------------0-----------------1-----------------1------
B-------1-----------------1-----1--1--------1-----1-----------0-----0---
G----0--------0--------2-----------------2-----------------0--------0---
D----2--------------------------------3--------------3------------------
A-3--------------3--0---------------------------------------------------
E-------------------------------------------------------3--------------3


Though my days ...
e----------0------------------------------------------------------------
B-------1-----1---------------------------------------------------------
G----2-----------2-----2------------------------------------------------
D-------------------------2--0h2--0-------------------------------------
A-0-----------------0----------------3----------------------------------
E-----------------------------------------------------------------------


e----------1------------------------------------------------------------
B-------1--------------------0------------------------------------------
G----2--------2-----------0---------------------------------------------
D----------------3-----0------------------------------------------------
A-------------------2-----------2---------------------------------------
E-1-----------------3--------------3------------------------------------


e----------0-----------------------------------------------------1------
B-------1-----1--------------0-----------------1--------------0---------
G----0--------------------0-----------------2--------------0------------
D----------------------2--------2--------3--------3-----0---------------
A-3--------------3--2-----------------------------------2-----------2---
E----------------------------------0--1--------------1--3--------------3


Chances, chances ..
e----------0-----------------------------------1-----------------1------
B-------1-----------------1--1--------------1-----1----------0----------
G----0-----------------2-----------------2-----------------0------------
D-------------------------------2---------------------------------------
A-3-----------3--2--0-----------------3-----------------------------2---
E----------------------------------0--1--------------1--3--------------3


e----------0-----------------0-----------------1-----------------1------
B-------1-----------------0-----------------1-----------------0---------
G----0--------0--------0-----------------2--------2--------0------------
D-2-----------------2-----------2--------3-----------3--------------0---
A----------------3--2-----------------3-----------------------------2---
E----------------------------------0--1-----------------3--------------3


Thoughlohloh ...
e-----------------------------------------------------------------------
B----------1--------------1---------------------------------------------
G-------2-----2-----------2---------------------------------------------
D----2-----------2-----2-----0h2--0-------------------------------------
A-0-----------------0----------------3----------------------------------
E-----------------------------------------------------------------------


e----------1-----------------1------------------------------------------
B----------1--------------0---------------------------------------------
G-------2-----2--------0------------------------------------------------
D----3-----------3--0---------------------------------------------------
A-------------------2--------------0-2----------------------------------
E-1-----------------3-----------3---------------------------------------


e----------0-----------------0-----------------------------------1------
B-------1-----------------0-----0--------------1--------------0-----0---
G----0--------0--------0--------------------2-----2--------0------------
D----------------2-----2-----------------3-----------3--0---------------
A-3-----------------2-----------------------------------2---------------
E----------------------------------0--1--------------------------------3

Chances ...