20140314

FLAMENCO MYSTICO TAB

"Passion ... beauty ... mystical ... flamenco"  says the video description.
There are some nice guitar licks in this song.
See the TAB below.



FLAMENCO MYSTICO TAB

PDF >>

Part 1

e-------------------------------3h5---3~--------------------------------
B-5h6p5\3---------------------------------------------------------------
G-----------------------------------------------------------------------
D-----------------------------------------------------------------------
A-----------------------------------------------------------------------
E-----------------------------------------------------------------------


e-----------------------------------------------------------------------
B-6-5-6~--6~--6~--------------------------------------------------------
G---------------------------7~------------------------------------------
D-----------------------------------------------------------------------
A-----------------------------------------------------------------------
E-----------------------------------------------------------------------


e------------------------------------------5~----3---3~-----------------
B-----5-6-\-3~--3~---------------------------------6--------------------
G---7-------------------------------------------------------------------
D-7---------------------------------------------------------------------
A-----------------------------------------------------------------------
E-----------------------------------------------------------------------



e-----------------------------------------------------------------------
B---5---8~-----5--------------------------------------------------------
G-5--------------5---7~---7~--------------------------------------------
D-----------------------------------------------------------------------
A-----------------------------------------------------------------------
E-----------------------------------------------------------------------


e-0---------------------------------------------------------------------
B--6--------------------------------------------------------------------
G---7-------------------------------------------------------------------
D----0------------------------------------------------------------------
A-----------------------------------------------------------------------
E-----------------------------------------------------------------------


e-----------------------------------------------------------------------
B-5-5-5-5-5-5-5h6-6---5-6---5---3---5---3h5p3\1-3---3~------------------
G-----------------------------------------------------------------------
D-----------------------------------------------------------------------
A-----------------------------------------------------------------------
E-----------------------------------------------------------------------


e---0-1-3-3/5-----5-5~----------------10~-------------------------------
B-3------------------------------------------10~----8-10-8h10p8-----8~--
G-----------------------------------------------------------------------
D-----------------------------------------------------------------------
A-----------------------------------------------------------------------
E-----------------------------------------------------------------------


e-----------------------------------------------------------------------
B-----8-----------------------------------------------------------------
G-10-----10--9~-----------5~----------------------5-----7~--------------
D----------------------------------------------7-----7------------------
A-----------------------------------------------------------------------
E-----------------------------------------------------------------------


Part 2

e-----------------------------------------------------------------------
B-----5-5h6-----5h6p5\3-------------------------------------------------
G---7---------------------7~--------------------------------------------
D-7-------------------------------7-8~------------8~--------------------
A-----------------------------------------------------------------------
E-----------------------------------------------------------------------


e-----------------------------------------------------------------------
B-----5-6---5---------------------------6-6-5~-------6-5-6-5h6p5\3-3----
G---7-----------7---------5~--------------------------------------------
D-8-------------------8-------------------------------------------------
A-----------------------------------------------------------------------
E-----------------------------------------------------------------------


e-----------------------------------------------------------------------
B-6--------------5-6---5------------------------------------------------
G---7~---------7-----------7-----7--------------------------------------
D------------7-----------------7---8~--------8~-------------------------
A-----------------------------------------------------------------------
E-----------------------------------------------------------------------


e-----------------------------------------------------------------------
B-----5-6-------8-----6-5-6-5h6p5----5~---------------------------------
G---7-----------------------------7-------------------------------------
D-8---------------------------------------------------------------------
A-----------------------------------------------------------------------
E-----------------------------------------------------------------------


e-----------------------------------------------------------------------
B-10-10-10\8--8-8-8p6--6-6-6\5--5-5-5--6--5--3--5--3h5p3---3~-----------
G--------------------------------------------------------5--------------
D-----------------------------------------------------------------------
A-----------------------------------------------------------------------
E-----------------------------------------------------------------------


Part 3

e-----------------------------------------------------------------------
B-10~---10~---10~--------8--------8~------------------------------------
G----------------------------10-----------------------------------------
D-----------------------------------------------------------------------
A-----------------------------------------------------------------------
E-----------------------------------------------------------------------


e-----------------------------------------------------------------------
B-10-11-10~---10~---10~-------8~----------------------------------------
G------------------------------------10-9~------------------------------
D-----------------------------------------------------------------------
A-----------------------------------------------------------------------
E-----------------------------------------------------------------------


e-----------------------------------------------------------------------
B-------------------------------5-6-5~----------------------------------
G-------9-7~------------------7-----------------------------------------
D-10~-------------------------------------------------------------------
A-----------------------------------------------------------------------
E-----------------------------------------------------------------------


e-----------------------------------------------------------------------
B-8~-----6-5------------------------------------------------------------
G------------7~---------------------------------------------------------
D-------------------8~--------------------------------------------------
A-----------------------------------------------------------------------
E-----------------------------------------------------------------------


Part 4

e------------------------------10---------------------------------------
B-----5-----6-----8-----10----------------------------------------------
G---7-------------------------------------------------------------------
D-7---------------------------------------------------------------------
A-----------------------------------------------------------------------
E-----------------------------------------------------------------------


e-12--13-12h13p12-----12-10h12p10-----10--------------------------------
B----------------------------------------13-11-10-----------------------
G-----------------------------------------------------------------------
D-----------------------------------------------------------------------
A-----------------------------------------------------------------------
E-----------------------------------------------------------------------


e-----------------------------------------------------------------------
B-8-8-8-8-8-8-8p6p5-----5---6-5h6p5---5---------------------------------
G-----------------------------------7---5-------------------------------
D-----------------------------------------------------------------------
A-----------------------------------------------------------------------
E-----------------------------------------------------------------------


e-------------------------------------8.---12.------10~-----------------
B---------------8/10---------------10-----------------------------------
G-7---------------------------------------------------------------------
D-7-10p7----------------------------------------------------------------
A-----------------------------------------------------------------------
E-----------------------------------------------------------------------


e-----------------------------------------------------------------------
B-----5-6-----5---------------------------------------------------------
G---7---------------7---------------------------------------------------
D-7-----------------------7-8~------------------------------------------
A-----------------------------------------------------------------------
E-----------------------------------------------------------------------


e-----------------------------------------------------------------------
B-----5-6-----5-----8-----6---5---6---5h6p5-----5~----------------------
G---7---------------------------------------7---------------------------
D-8---------------------------------------------------------------------
A-----------------------------------------------------------------------
E-----------------------------------------------------------------------


e-----------------------------------------------------------------------
B-5h6---5---------------------------------------------------------------
G-----------7-----5-7------------------7~-------------------------------
D-------------------------7----------------------------5h7--------------
A-----------------------------------------------------------------------
E-----------------------------------------------------------------------


e-----------------------------------------------------------------------
B-----5-6-5-6-8-6-8-10~----10~------8-6-5---6-\-3~----------------------
G---7-------------------------------------------------------------------
D-7---------------------------------------------------------------------
A-----------------------------------------------------------------------
E-----------------------------------------------------------------------


e-5---6-5---6-5h6-5-----5---3h5p3~--------------------------------------
B-------------------8---------------------------------------------------
G-----------------------------------------------------------------------
D-----------------------------------------------------------------------
A-----------------------------------------------------------------------
E-----------------------------------------------------------------------


e-------------------8---------------------------------------------------
B--------8---8h10p8-----11---10---8---10---h11-10~----------------------
G-9---10----------------------------------------------------------------
D-----------------------------------------------------------------------
A-----------------------------------------------------------------------
E-----------------------------------------------------------------------


e-----------------------------------------------------------------------
B-8h10p8----8~----6-5-6-----5-------------------------------------------
G--------10-------------------7~----------------------------------------
D-----------------------------------------------------------------------
A-----------------------------------------------------------------------
E-----------------------------------------------------------------------


Part 5

e-----------------------------------------------------------------------
B-10~---10~---10~------------8h10-8~------------------------------------
G-----------------------------------------------------------------------
D-----------------------------------------------------------------------
A-----------------------------------------------------------------------
E-----------------------------------------------------------------------


e-----------------------------------------------------------------------
B------8-10~---10~---10~----------8-------------------------------------
G-9-10------------------------------9-----------------------------------
D-------------------------------------10--------------------------------
A-----------------------------------------------------------------------
E-----------------------------------------------------------------------


e-----------------------------------------------------------------------
B------------------------8h10-8~---8~---8~------------------------------
G-10---9~-------10~-----------------------------------------------------
D-----------------------------------------------------------------------
A-----------------------------------------------------------------------
E-----------------------------------------------------------------------


e-----------------------------------------------------------------------
B-----------------------------------------------------------------------
G-10---9---10---\---7~--------------------------------------------------
D-----------------------------------------------------------------------
A-----------------------------------------------------------------------
E-----------------------------------------------------------------------


Part 6

e-0------------0--------------------------------------------------------
B--6-----------6--------------------------------------------------------
G---7-------------------------------------------------------------------
D----7------------------------------------------------------------------
A-----------------------------------------------------------------------
E-----------------------------------------------------------------------


e-----------------------------------------------------------------------
B-----------------------------------------------------------------------
G-7~--7~--7~--7~------7h9p7-5~--5~--5~--5--3--2--3--2h3p2-0---0-2-3p2---
D-----------------------------------------------------------3-----------
A-----------------------------------------------------------------------
E-----------------------------------------------------------------------


e-----------------------------------------------------------------------
B---------------------------5-6~---6~--5-6-8--6-------------------------
G-2--\--7~--7~--7~--------7-----------------------7---7h9---9h10p9-7~---
D-----------------------------------------------------------------------
A-----------------------------------------------------------------------
E-----------------------------------------------------------------------


e-----------------------------------------------------------------------
B-10~-------------------------------------------------------------------
G-----------------------------------------------------------------------
D-----------------------------------------------------------------------
A-----------------------------------------------------------------------
E-----------------------------------------------------------------------


Part 7

e-----------------------------------------------------------------------
B-----------------------------------------------------------------------
G-2h3p2p0-2~-----2h3p2-0------------------------------------------------
D-----------------------------------------------------------------------
A-----------------------------------------------------------------------
E-----------------------------------------------------------------------


e-----------------------------------------------------------------------
B-----------------------------------------------------------------------
G-------0-2-3p2-3p2h3p2p0-------------0---------------------------------
D-0h2h3--------------------------0h2h3-2---0----------3--2h3p2p0--------
A-----------------------------------------------------------------------
E-----------------------------------------------------------------------


e-----------------------------------------------------------------------
B-----------------------------------------------------------------------
G--------------0-----0-2---3---2-5--------------------------------------
D-0-2.--3----------2----------------------------------------------------
A-----------------------------------------------------------------------
E-----------------------------------------------------------------------


e-----------------------------------------------------------------------
B-----------------------------------------------------------------------
G-3-2-3-2h3p2p0-2---0---------------------------------------------------
D-----------------3---3p2-3-2p0-2-----2h3h5-2-5/7~----------------------
A---------------------------------3h5-----------------------------------
E-----------------------------------------------------------------------


e----------------------------10---12---13---15--(17~---17~---17~---)----
B-----------------------10----------------------------------------------
G-----7---9---10---12---------------------------------------------------
D-7---------------------------------------------------------------------
A-----------------------------------------------------------------------
E-----------------------------------------------------------------------


Part 8

e-----------------------------------------------------------------------
B-10~---10~---10~--------8--------8~------------------------------------
G----------------------------10-----------------------------------------
D-----------------------------------------------------------------------
A-----------------------------------------------------------------------
E-----------------------------------------------------------------------


e-----------------------------------------------------------------------
B-10-11-10~---10~---10~-------8~----------------------------------------
G------------------------------------10-9~------------------------------
D-----------------------------------------------------------------------
A-----------------------------------------------------------------------
E-----------------------------------------------------------------------


e-----------------------------------------------------------------------
B-------------------------------5-6-5~----------------------------------
G-------9-7~------------------7-----------------------------------------
D-10~-------------------------------------------------------------------
A-----------------------------------------------------------------------
E-----------------------------------------------------------------------


e-----------------------------------------------------------------------
B-8~-----6-5------------------------------------------------------------
G------------7~---------------------------------------------------------
D-------------------8~--------------------------------------------------
A-----------------------------------------------------------------------
E-----------------------------------------------------------------------