20140327

WARNING LIGHT TAB (RELAXING ACOUSTIC GUITAR MUSIC MIX BY WAVESDVDCOM)

Somber Guitar - Warning Light is the last song in this wonderful mix by 18:20.
Standard tuning with Capo on the 2nd fret.
See the TAB under the video and enjoy the golden sand on the beach.



WARNING LIGHT TAB

GP5 + GP6 + PDF >> 

Part 1                - CAPO on 2nd -

e---------0h2p0---------3-----------3-----------------------------------
B---------3-----3-------------------3-----------------------3---0-------
G-----2-------------2-----------0---0-------0---2-----------2---2-------
D-0-------------------------0-----------2---------------0---------------
A-----------------------------------3-----------------------------------
E---------------------------------------------------2-------------------


e-------------3---------------------------------------------------------
B-------------------------0---0h1---------1---------------3-------------
G---------2-----------2-----------------------0-------0-----------------
D-----0-------------------------------2---2-----------0-----------------
A---------------------------------0---------------2-----------2.--------
E-3---------------3-----------------------------------------------------


e-------------------------0h2-----2---3---------------------------------
B-3-------------------------------3-----------3-------------------------
G---------0-----------2-------2-----------2-----------------------------
D-----0-----------0-----------------------------------------------------
A-3---------------------------------------------------------------------
E-----------------------------------------------------------------------



e---------0h2p0---------3-----------------------------------------------
B---------3-----3-------3-----------3-----------3---------------0-------
G-----2-------------2-----------0-----------0-------2-------2-----------
D-0-------------------------0-----------0---------------0---------------
A-----------------------------------2-----------------------------------
E---------------------------------------------------2-------------------


e-------------3-----------------------3---------------------------------
B-----------------------------0--------0--------------------------------
G---------2-----------2-----------------2-------------------------------
D-----0-------------------0--------------0------------------------------
A-----------------------------------------x-----------------------------
E-3---------------3------------------------3----------------------------


Part 2

e-----------------------------------------------------------------------
B-------------0---------------0---------------0---------------0---------
G---------2---------------2---------------2---------------2-------------
D-----0---------------0---------------0---------------0-----------------
A-----------------------------------------------------------------------
E-3---------------3---------------3---------------3---------------------


e-----------------------------------------------------------------------
B-------------0---------------0---------------0---------------0---------
G---------2---------------2---------------2---------------0-------------
D-----0---------------0---------------0---------------0-----------------
A-----------------------------------------------------------------------
E-3---------------3---------------3---------------2---------------------


e---------------------0-------------------------------0-----------------
B-------------0---------------------------0-----------------------------
G---------0-------------------0-------0-----------0-----------0---------
D-----2-------------------2-------4-----------2-------------------------
A---------------------------------------------------------2-------------
E-0---------------0-----------------------------------------------------


e-------------0---------------------------0-----------0-----------------
B-0-h-1-----------------------1-------1-----------1---------------------
G-------------------------0-------4-----------0---------------0---------
D---------2-----------2-----------------------------------2-------------
A-0---------------0-----------------------------------------------------
E-----------------------------------------------------------------------


e---------0h2---------2-----------0-----------3-------2-----------------
B-------------3---------------3-----------3-------------------0---------
G-----2-----------2-------2-----------2-----------2---------------------
D-0-------------------------------0-----------------------0-------------
A-----------------------------------------------------------------------
E-----------------------------------------------------------------------


Part 3

e-----------------------------------------------------------------------
B-------------0---------------0---------------0---------------0---------
G---------2---------------2---------------2---------------0-------------
D-----0---------------0---------------0---------------0-----------------
A-----------------------------------------------------------------------
E-3---------------3---------------3---------------2---------------------



DOWNLOAD THE COMPLETE TAB HERE






  • click 'Buy Now' and send $6  (or 'Add to Cart' if you want to buy more tabs)
  • add your e-mail address
  • you will get a confirmation e-mail with your download links (in a few seconds)
  • download the full Guitar Pro 6 tab + GP5 + PDF
  • then start to learn the full song - that's all ...

IF YOU DIDN'T GET YOUR DOWNLOAD LINK, PLEASE CONTACT US HERE >>

SEND YOUR GUITAR TAB REQUEST HERE >>
MORE ON GUITAR TABS A-Z >>

Guitar Pro: a complete workshop for guitarists at an affordable price