20140324

WHISKEY MYERS AMERICAN OULAWS TAB


Whiskey Myers - American Outlaws played with a Road Worn Fender Stratocaster.
Only the main parts of the song are shown in the video but there is the complete TAB of all the other parts and the cool solos too. Use dropped D tuning to get the right sound.
Good luck ...


WHISKEY MYERS AMERICAN OULAWS TAB

PDF >>

Intro

e-----------------------------------------------------------------------
B-------------------------------------------3---------------------------
G-------------------------------------------2---------------------------
D-5p3p0-3p0-0-------------------------------0---------------------------
A-------------3p0-0-3p0-0-3p2p0-------------0---------------------------
D------------------------------3'---0-------0---------------------------


e-----------------------------------------------------------------------
B-3-----3-----------------3---------------------------------------------
G-2-----2-----------------2---------------------------------------------
D-0-----0-----------------0---------------------------------------------
A-------------------------0---------------------------------------------
D---------3'--------0-----0---------------------------------------------


e-----------------------------------------------------------------------
B-3-----3-----------------3---------------------------------------------
G-2-----2-----------------2---------------------------------------------
D-0-----0-----------------0---------------------------------------------
A-------------------------0---------------------------------------------
D---------3'---3'---0-----0---------------------------------------------



e-----------------------------------------------------------------------
B-3-----3-----------------3---------------------------------------------
G-2-----2-----------------2---------------------------------------------
D-0-----0-----------------0---------------------------------------------
A-------------------------0---------------------------------------------
D---------3'---3'---0-----0---------------------------------------------


e-----------------------------------------------------------------------
B-3-----3---------------------------------------------------------------
G-2-----2---------------------------------------------------------------
D-0-----0---------------------------------------------------------------
A-----------------------------------------------------------------------
D---------3'---3'-------------------------------------------------------


Main part

e-----------------------------------------------------------------------
B-----------------------------------------------------------------------
G----------------2---------------------------------------------2--------
D---------0------0-----0---3'---0-----0-----0-----3'---0-------0--------
A-----0h3----------0h3---x--------------0h3-----x----------0h3----------
D-0---------------------------------------------------------------------


e-----------------------------------------------------------------------
B-----------------------------------------------------------------------
G-----------------------------------------------------------------------
D---------0------0-----0---3'---0-----0-----0-----3'---0----------------
A-----0h3----------0h3---x--------------0h3-----x--------3-2-0----------
D-0------------------------------------------------------------3'-------


Verse

e-----------------------------------------------------------------------
B-----------------------------------------------------------------------
G-----------------------------------------------------------------------
D---------0------0-----0---3'---0-----0-----0---0-3'---0-------0--------
A-----0h3----------0h3---x--------------0h3----------------0h3----------
D-0---------------------------------------------------------------------


e-----------------------------------------------------------------------
B-----------------------------------------------------------------------
G-----------------------------------------------------------------------
D---------0------0-----0---3'---0-----0-----0---0-3'---0-------0--------
A-----0h3----------0h3---x--------------0h3----------------0h3----------
D-0---------------------------------------------------------------------


e-----------------------------------------------------------------------
B-----------------------------------------------------------------------
G-----------------------------------------------------------------------
D---------0------0-----0---3'---0-----0-----0---0-3'---0-------0--------
A-----0h3----------0h3---x--------------0h3----------------0h3----------
D-0---------------------------------------------------------------------


e-----------------------------------------------------------------------
B-----------------------------------------------------------------------
G-----------------------------------------------------------------------
D---------0------0-----0---3'---0-----0-----0---0-3h5---3p0-------------
A-----0h3----------0h3---x--------------0h3-----------------3-0h3p0-----
D-0----------------------------------------------------------------3'---


e-----------------------------------------------------------------------
B-----------------------------------------------------------------------
G-----------------------------------------------------------------------
D---------0------0-----0---3'---0-----0-----0---0-3'---0-------0--------
A-----0h3----------0h3---x--------------0h3----------------0h3----------
D-0---------------------------------------------------------------------


e-----------------------------------------------------------------------
B-----------------------------------------------------------------------
G-----------------------------------------------------------------------
D---------0------0-----0---3'---0-----0-----0---0-3'---0----------------
A-----0h3----------0h3---x--------------0h3--------------3-2-0----------
D-0------------------------------------------------------------3'-------


e-----------------------------------------------------------------------
B-----------------------------------------------------------------------
G-----------------------------------------------------------------------
D---------0------0-----0---3'---0-----0-----0---0-3'---0-------0--------
A-----0h3----------0h3---x--------------0h3----------------0h3----------
D-0---------------------------------------------------------------------


e-----------------------------------------------------------------------
B-----------------------------------------------------------------------
G-----------------------------------------------------------------------
D---------0------0-----0---3'---0-----0-----0---0-0-----0---0-0---0-----
A-----0h3----------0h3---x--------------0h3---------0h3-----------------
D-0---------------------------------------------------------------------



Chorus - Guitar 1

e-----------------------------------------------------------------------
B-----------------------------------------------------------------------
G-5---------------------------------------------------------------------
D-5-------------------------------5---5---5---5-5---5-5-5-5-------------
A-3-------------------------------5---5---5---5-5---5-5-5-5-------------
D-5-------------------------------5---5---5---5-5---5-5-5-5-3'----------


  D
e-----------------------------------------------------------------------
B---------3-----3---3-----3---3-----------3-----3---3-3-3-3---3-3-------
G---------2-----2---2-----2---2-----------2-----2---2-2-2-2---2-2-------
D-0---0---0---0-0---0-0---0---0---0---0-0-0---0-0---0-0-0-0---0-0-------
A-0---0---0---0-0---0-0---0---0---0---0-0-0---0-0---0-0-0-0---0-0-------
D-0---0---0---0-0---0-0---0---0---0---0-0-0---0-0---0-0-0-0---0-0-------


  C                               G
e-----------------------------------------------------------------------
B-----------------------------------------------------------------------
G-5---5---5---5-5-5---5---5---5-5---------------------------------------
D-5---5---5---5-5-5---5---5---5-5-5---5---5---5-5---5-5-5-5-------------
A-3---3---3---3-3-3---3---3---3-3-5---5---5---5-5---5-5-5-5-------------
D-5---5---5---5-5-5---5---5---5-5-5---5---5---5-5---5-5-5-5-3'----------


  D
e-----------------------------------------------------------------------
B---------3-----3---3-----3---3-----------3-----3---3-3-3-3---3---------
G---------2-----2---2-----2---2-----------2-----2---2-2-2-2---2---------
D-0---0---0---0-0---0-0---0---0---0---0---0---0-0---0-0-0-0---0---------
A-0---0---0---0-0---0-0---0---0---0---0---0---0-0---0-0-0-0---0---------
D-0---0---0---0-0---0-0---0---0---0---0---0---0-0---0-0-0-0---0---------


  C                               G
e-----------------------------------------------------------------------
B-----------------------------------------------------------------------
G-5---5---5---5-5-5---5---5---5-5---------------------------------------
D-5---5---5---5-5-5---5---5---5-5-5---5---5---5-5---5-5-5-5-------------
A-3---3---3---3-3-3---3---3---3-3-5---5---5---5-5---5-5-5-5-------------
D-5---5---5---5-5-5---5---5---5-5-5---5---5---5-5---5-5-5-5-3'----------


  D
e-----------------------------------------------------------------------
B---------3-----3---3-----3---3-----------3-----3---3-3-3-3---3---------
G---------2-----2---2-----2---2-----------2-----2---2-2-2-2---2---------
D-0---0---0---0-0---0-0---0---0---0---0---0---0-0---0-0-0-0---0---------
A-0---0---0---0-0---0-0---0---0---0---0---0---0-0---0-0-0-0---0---------
D-0---0---0---0-0---0-0---0---0---0---0---0---0-0---0-0-0-0---0---------


  C                               G
e-----------------------------------------------------------------------
B-----------------------------------------------------------------------
G-5---5---5---5-5-5---5---5---5-5---------------------------------------
D-5---5---5---5-5-5---5---5---5-5-5---5---5---5-5-x-5-5-5-5-------------
A-3---3---3---3-3-3---3---3---3-3-5---5---5---5-5-x-5-5-5-5-------------
D-5---5---5---5-5-5---5---5---5-5-5---5---5---5-5-x-5-5-5-5-3'----------


  D
e-----------------------------------------------------------------------
B-----------------------------------------------------------------------
G-----------------------------------------------------------------------
D-0---------------------------------------------------------------------
A-0---------------------------------------------------------------------
D-0---------------------------------------------------------------------



Chorus - Guitar 2

  C                               G
e-----------------------------------------------------------------------
B-----------------------------------------------------------------------
G-----------------------------------------------------------------------
D-2---2---2---2---2---2---2---2-2---------------5---5-5-5-5-------------
A-3---3---3---3---3---3---3---3-3-5---5---5---5-5---5-5-5-5-------------
D---------------------------------5---5---5---5-5---5-5-5-5-3'----------
  x   x   x   x   x   x   x   x x x   x   x   x

 
  D
e-----------------------------------------------------------------------
B-----------------------------------------------------------------------
G-----------------------------------------------------------------------
D---------0------0-----0---3'---0-----0-----0---0-3'---0-------0--------
A-----0h3----------0h3---x--------------0h3----------------0h3----------
D-0---------------------------------------------------------------------

 
  C                               G
e-----------------------------------------------------------------------
B-----------------------------------------------------------------------
G-----------------------------------------------------------------------
D-2---2---2---2---2---2---2---2-2---------------5---5-5-5-5-------------
A-3---3---3---3---3---3---3---3-3-5---5---5---5-5---5-5-5-5-------------
D---------------------------------5---5---5---5-5---5-5-5-5-3'----------
  x   x   x   x   x   x   x   x x x   x   x   x


  D
e-----------------------------------------------------------------------
B-----------------------------------------------------------------------
G-----------------------------------------------------------------------
D---------0------0-----0---3'---0-----0-----0---0-3h5---3p0-------------
A-----0h3----------0h3---x--------------0h3-----------------3-0h3p0-----
D-0----------------------------------------------------------------3'---


  C                               G
e-----------------------------------------------------------------------
B-----------------------------------------------------------------------
G-----------------------------------------------------------------------
D-2---2---2---2---2---2---2---2-2---------------5---5-5-5-5-------------
A-3---3---3---3---3---3---3---3-3-5---5---5---5-5---5-5-5-5-------------
D---------------------------------5---5---5---5-5---5-5-5-5-3'----------
  x   x   x   x   x   x   x   x x x   x   x   x


  D
e-----------------------------------------------------------------------
B-----------------------------------------------------------------------
G-----------------------------------------------------------------------
D---------0------0-----0---3'---0-----0-----0---0-0-----0---0-0---0-----
A-----0h3----------0h3---x--------------0h3---------0h3-----------------
D-0---------------------------------------------------------------------


  C                               G
e-----------------------------------------------------------------------
B-----------------------------------------------------------------------
G-----------------------------------------------------------------------
D-2---2---2---2---2---2---2---2-2---------------5---5-5-5-5-------------
A-3---3---3---3---3---3---3---3-3-5---5---5---5-5---5-5-5-5-------------
D---------------------------------5---5---5---5-5---5-5-5-5-3'----------
  x   x   x   x   x   x   x   x x x   x   x   x

 
  D
e-----------------------------------------------------------------------
B-----------------------------------------------------------------------
G-----------------------------------------------------------------------
D---------0------0-----0---3'---0-----0-----0---0-3'---0-------0--------
A-----0h3----------0h3---x--------------0h3----------------0h3----------
D-0---------------------------------------------------------------------



Main Part again before Verse 2

e-----------------------------------------------------------------------
B-----------------------------------------------------------------------
G-----------------------------------------------------------------------
D---------0------0-----0---3'---0-----0-----0---0-3'---0----------------
A-----0h3----------0h3---x--------------0h3--------------3-2-0----------
D-0------------------------------------------------------------3'-------


then ...

Verse 2

Chorus 2

Solo 1   ( 1 'verse' (but rather a pure D note) + 1 chorus )

Main part

Verse 3   ( with some cool fill in's )

Chorus 3

Solo 2    (the best)

Final main part by 7:57

e-----------------------------------------------------------------------
B-----------------------------------------------------------------------
G-----------------------------------------------------------------------
D---------0------0-----0---3'---0-----0-----0---0-3'---0-------0--------
A-----0h3----------0h3---x--------------0h3----------------0h3----------
D-0---------------------------------------------------------------------


e-----------------------------------------------------------------------
B-----------------------------------------------------------------------
G-----------------------------------------------------------------------
D---------0------0-----0---3'---0---5p3p0-3p0-0-------------------------
A-----0h3----------0h3---x----------------------3p0-0-3p0-0-3p2p0-------
D-0---------------------------------------------------------------3'----


e-----------------------------------------------------------------------
B-----------------------------------------------------------------------
G-----------------------------------------------------------------------
D-----------------------------------------------------------------------
A-----------------------------------------------------------------------
D-0---------------------------------------------------------------------


Solo by 3:54

e-----------------------------------------------------------------------
B---0h1-----------0h1---3---3/5---3~----------3\1---1p0---0h1p0---------
G---------------------------------------------------------------2---4---
D-----------------------------------------------------------------------
A-----------------------------------------------------------------------
D-0-------------0-----0---0-----------------0-----0-----0---------0---0-
  x             x     x   x                 x     x     x         x   x

e-----------------------------------------------------------------------
B-1p0-------------------------------------------------------------------
G-------4-p2p0---0------------------------------------------------------
D-------------4------3p0------------------------------------------------
A-----------------------------------------------------------------------
D-----0------------0-----3'---0-----------------------------------------
      x            x

e-----------------------------------------------------------------------
B-------------------0h1---0h1---3~--------------------------------------
G-2h4~------2~----------------------------------------------------------
D-----------------------------------------------------------------------
A-----------------------------------------------------------------------
D---------0-------0-----0-----0-----------------------------------------
          x       x     x     x

e-----------------------------------------------------------------------
B---1-----0h1p0------3/5---3~-------------------------------------------
G---------------2-------------------------------------------------------
D-----------------------------------------------------------------------
A-----------------------------------------------------------------------
D-0---0-0---------0-0----0----------------------------------------------
  x   x x         x x    x

e-----------------------------------------------------------------------
B---3p1---1p0---0h1p0---3p1---1p0---------------------------------------
G-----------------------------------4~----p2-2~-------------------------
D-----------------------------------------------------------------------
A-----------------------------------------------------------------------
D-0-----0-----0-------0-----0-----0-------------------------------------
  x     x     x       x     x     x

e-----------------------------------------------------------------------
B---10~-----8~-----6~-----8~-----10~-----8~-----6~-----5h6p5-----8---6\5
G-----------------------------------------------------------------------
D-----------------------------------------------------------------------
A-----------------------------------------------------------------------
D-0-------0------0------0------0-------0------0------0---------0---0----
  x       x      x      x      x       x      x      x         x   x

e-----------------------------------------------------------------------
B---5\3---3\1---1p0---0h1p0---3/5---3\1---1p0---0h1p0-------------------
G-------------------------------------------------------4--p2p0---------
D--------------------------------------------------------------4--3p0---
A-----------------------------------------------------------------------
D-0-----0-----0-----0-------0-----0-----0-----0-------0--------------3'-
  x     x     x     x       x     x     x     x       x

e-----------------------------------------------------------------------
B-----------------------------------------------------------------------
G-------------5-------5---5h7---------5---5h7---5h7---5h7---5h7---5h7---
D--------/7---------7---7-----------7---7-----7-----7-----7-----7-----7-
A-----------------------------------------------------------------------
D-0---------------------------------------------------------------------


e-----------------------------------------------------------------------
B-----------------------------------------------------------------------
G-5h7---5h7---5h7---5h7---5h7---7---------------------------------------
D-----7-----7-----7-----7-----7-----------------------------------------
A-----------------------------------------------------------------------
D-----------------------------------------------------------------------


e-----------------------------------------------------------------------
B-----------------------------------------------------------------------
G-7p5p0-4-----4p2p0----0------------------------------------------------
D-------------------4-----4--2--0-----0---0-----------------------------
A-------------------------------------0---0-----------------------------
D---------------------------------3'--0---0-----------------------------


e-10---------10---------10----------------------------------------------
B-13(15)-----13(15)-----13(15)---13-10-13-------------------------------
G--------------------------------------12(14)-(12)p10h12---10-12-10-----
D-------------------------------------------------------------------12~-
A-----------------------------------------------------------------------
D-----------------------------------------------------------------------


e-----------------------------------------------------------------------
B----------10-----------------------------------------------------------
G----10-12----12-12(14)-(12)p10-12-10-12-10-----------------------------
D-------------------------------------------12--------------------------
A-----------------------------------------------------------------------
D-----------------------------------------------------------------------


e-10.-----------------------------10.-----------------------------------
B-13(15).---10--------------------13(15).---10--------------------------
G-----------12(14)~----(12)~----------------12(14)~----(12)~------------
D-----------------------------------------------------------------------
A-----------------------------------------------------------------------
D-----------------------------------------------------------------------


e-10.-------------------------------------------------------------------
B-13(15).---10-------------------------13-------------------------------
G-----------12(14)~----(12)p10--10--10-12(14)(12)p10-12-10----10--------
D-----------------------------12--12-----------------------12-----------
A-----------------------------------------------------------------------
D-----------------------------------------------------------------------


e------------10-------------10-------------10-------------10--------10--
B--------------10-------------10-------------10-------------10--------10
G-12-(14)--------12-(14)--------12-(14)--------12-(14)--------12(14)----
D-----------------------------------------------------------------------
A-----------------------------------------------------------------------
D-----------------------------------------------------------------------


e-------10--------10--------10--------10--------10----------------------
B---------10--------10--------10--------10--------10--------------------
G-12(14)----12(14)----12(14)----12(14)----12(14)----12(14)-(12)p10-12-10
D-----------------------------------------------------------------------
A-----------------------------------------------------------------------
D-----------------------------------------------------------------------


e-----------------------------------------------------------------------
B---------------------------10----------10------------------------------
G-12-10---------------10-12----12(14)------(14)(12)-p10-----------------
D-------12-10-12~-------------------------------------------------------
A-----------------------------------------------------------------------
D-----------------------------------------------------------------------


e-----------------------------------------------------------------------
B----------10-----------------------10-----------------------10-13--p10-
G-12(14)------(14)(12)-p10-12(14)------(14)(12)-p10-12(14)--------------
D-----------------------------------------------------------------------
A-----------------------------------------------------------------------
D-----------------------------------------------------------------------


e----------10-13--p10-10-13/15-15-15(17)(15)p13-15-13-------------------
B-13(15)----------------------------------------------15-13-15~---------
G-----------------------------------------------------------------------
D-----------------------------------------------------------------------
A-----------------------------------------------------------------------
D-----------------------------------------------------------------------


e-----------------------------------------------------------------------
B-13--13----------------------------------------------------------------
G---14--14\12--p10-12(14)(12)p10-12--10---------------------------------
D---------------------------------------12-10-12~-----------------------
A-----------------------------------------------------------------------
D-----------------------------------------------------------------------


e-----------------------------------------------------------------------
B-------------10----10--------------------------------------------------
G-------------10----10-12(14)(12)p10-12-10------------------------------
D-10----10-12----12------------------------12-10-12~--------------------
A----12-----------------------------------------------------------------
D-----------------------------------------------------------------------


e-----------------------------------------------------------------------
B--------------10-----------------------10------------------------------
G--------------10-----------------------10------------------------------
D-10----10-12------12~-----10----10-12------12~-------------------------
A----12-----------------------12----------------------------------------
D-----------------------------------------------------------------------


e-----------------------------------------------------------------------
B-----------------------------------------------------------------------
G-------------10-------------10---------------------10h12p10--10h12p10--
D-10----10-12----12-10--10h12--12p10------------------------12--------12
A----12---------------12------------12--10\8-10/12----------------------
D-----------------------------------------------------------------------


e-----------------------------------------------------------------------
B-----------------------------------------------------------------------
G-10h12p10---10h12p10--10h12p10--10h12p10--10h12p10--10h12p10-----------
D--------------------12--------12--------12--------12--------12---------
A-----------------------------------------------------------------------
D-----------------------------------------------------------------------


e-----------------------------------------------------------------------
B-----------------------------------------------------------------------
G-10h12p10--10h12p10--10h12p10--10h12p10--10h12p10--10h12p10--10h12p10--
D---------12--------12--------12--------12--------12--------12--------12
A-----------------------------------------------------------------------
D-----------------------------------------------------------------------


e-----------------------------------------------------------------------
B----------------------------------13-----------------------------------
G-10-12-12(14)---------(12)p10-----12(14)~------------------------------
D-----------------------------12----------------------------------------
A-----------------------------------------------------------------------
D-----------------------------------------------------------------------


e-----------------------------------------------------------------------
B-----------------------------------------------------------------------
G-12(14)---(12)~----------10--------------------------------------------
D----------------------------12~----------------------------------------
A-----------------------------------------------------------------------
D-----------------------------------------------------------------------


e-----------------------------------------------------------------------
B-----------------------------------------------------------------------
G---------<7>-----------------------------------------------------------
D-<7>-------------------------------------------------------------------
A-----------------------------------------------------------------------
D-----------------------------------------------------------------------


Cool fill in's in verse 3

e-----------------------------------------------------------------------
B-----------------------------------------------------------------------
G-----------------------------------------------------------------------
D------------10h12~-----------------------------------------------------
A-10h11h12--------------------------------------------------------------
D-----------------------------------------------------------------------


e-----------------------------------------------------------------------
B---------13--------13--------13h15~------------------------------------
G-12/14----------14--------14-------------------------------------------
D-----------------------------------------------------------------------
A-----------------------------------------------------------------------
D-----------------------------------------------------------------------


e-----------------------------------------------------------------------
B-----------------------------------------------------------------------
G-12~------10~----------------------------------------------------------
D-------------------12~-------------------------------------------------
A-----------------------------------------------------------------------
D-----------------------------------------------------------------------


e-----------------------------------------------------------------------
B-----------------------------------------------------------------------
G-----------------------------------------------------------------------
D----------10~--------10~--------10h12~---------------------------------
A-10h11h12---------12---------12----------------------------------------
D-----------------------------------------------------------------------


e-----------------------------------------------------------------------
B-----------------------------------------------------------------------
G-12p10.--(10h)12(14)(12)---p10-----------------------------------------
D-------------------------------12-10h12~-------------------------------
A-----------------------------------------------------------------------
D-----------------------------------------------------------------------


e-----------------------------------------------------------------------
B-----------------------------------------------------------------------
G---------<7>-----------------------------------------------------------
D-<7>-------------------------------------------------------------------
A-----------------------------------------------------------------------
D-----------------------------------------------------------------------


e-10-------10-----------------------------------------------------------
B-13(15)---13(15)-------------p10.--------------------------------------
G-----------------------------------------------------------------------
D------------------------------------10h12~-----------------------------
A-----------------------------------------------------------------------
D-----------------------------------------------------------------------


e---------------10----------10------------------------------------------
B------------------13(15)-----13p10---10--------------------------------
G-10-12(14)------------------------12----12(14)(12)-10-12-10------------
D------------------------------------------------------------12---10~---
A-----------------------------------------------------------------------
D-----------------------------------------------------------------------



Solo by 7:15

e-----------------------------------------------------------------------
B-----------------------------------------------------------------------
G-------7p5h7-------7p5h7-------7p5h7-------7p5h7-7p5\4-5p4\2-4p2p0----0
D-0h5h7-------0h5h7-------0h5h7-------0h5h7-------------------------4---
A-----------------------------------------------------------------------
D-----------------------------------------------------------------------


e-----------------------------------------------------------------------
B-----------------------------------------------------------------------
G-----------------------------------------------------------------------
D-4--2--0---------------------------------------------------------------
A-----------------------------------------------------------------------
D----------3'-0----0----------------------------------------------------


e-----------------------------------------------------------------------
B-----------------------------------------------------------------------
G-------0h2h4-0h4h5-0h5h7-0h7h9-0h9h10-0h10h12-0h12h14-0p10h12----------
D-0h2h3-----------------------------------------------------------------
A-----------------------------------------------------------------------
D-----------------------------------------------------------------------


e-----------------------------------------------------------------------
B-----------------------------------------------------------------------
G-0h12h14-0p10h12-0h12h14-12(14)(12)p10--10h12-10--10-------------------
D--------------------------------------12--------12---------------------
A-----------------------------------------------------------------------
D-----------------------------------------------------------------------


e-----------10----------10----------------------------------------------
B--------10----13(15)------13p10----10.---------------------------------
G-12(14)-------------------------12----12(14)(12)p10---12.-10'----------
D---------------------------------------------------12---------12-10-12-
A-----------------------------------------------------------------------
D-----------------------------------------------------------------------


e-------------------------10----------10----------10--------------------
B-----------------------10----------10----------10----------------------
G---10----10-12(14)----------12(14)------12(14)-------------------------
D------12---------------------------------------------------------------
A-----------------------------------------------------------------------
D-----------------------------------------------------------------------


e-----------------------------------------------------------------------
B-----------------------------------------------------------------------
G-12(14)-(12)p10-12p10-----10~-------------10-12-12p10-----10'----------
D---------------------12---------12p10----------------12--------12p10---
A--------------------------------------12----------------------------12-
D-----------------------------------------------------------------------


e-----------------------------------------------------------------------
B----------------------------------------------11-11-11-/13-13-13-------
G-------12(14).---10~-----------------10----10-12-12-12-/14-14-14-------
D-10-12-----------------12p10---10-12----12-----------------------------
A----------------------------12-----------------------------------------
D-----------------------------------------------------------------------


e------------------------------------13-------15(17)-----15(17)---------
B-/13-13-13-/13-13-13-15-15-15-15~------15-15---------------------------
G-/14-14-14-/14-14-14---------------------------------------------------
D-----------------------------------------------------------------------
A-----------------------------------------------------------------------
D-----------------------------------------------------------------------


e-15(17)-(15)-13-15p13---13~--------------------------------------------
B---------------------15-------15p13---13-------------12---10~----------
G-----------------------------------14----14\12p10----12---10~----------
D--------------------------------------------------12----x--------------
A-----------------------------------------------------------------------
D-----------------------------------------------------------------------


e------------------------------------10-------------10----------10------
B---------------------------------10----10-13(15)------13(15)-----------
G---------------10----10-12(14)-----------------------------------------
D-12p10---10-12----12---------------------------------------------------
A------12---------------------------------------------------------------
D-----------------------------------------------------------------------


e------------10----10-13p10h13p10---10-13-10h13p10---10-10-10h13p10--10-
B-13(15)--------13---------------13---------------13---------------13---
G-----------------------------------------------------------------------
D-----------------------------------------------------------------------
A-----------------------------------------------------------------------
D-----------------------------------------------------------------------


e-13p10h13p10---10-13p10---10-------------------------------------------
B------------13---------13----13p10---10-13p10---10-13p10---10-13p10--10
G----------------------------------12---------12---------12---------12--
D-----------------------------------------------------------------------
A-----------------------------------------------------------------------
D-----------------------------------------------------------------------


e-----------------------------------------------------------------------
B-10-----10-13p10--10-10------------------------------------------------
G---12p10--------12-----12p10-12(14)-12-10----12---10'------------------
D------------------------------------------12----x-------12~------------
A-----------------------------------------------------------------------
D-----------------------------------------------------------------------