20140426

LAURA COX TESTING MY NEW GIBSON LES PAUL TAB (TESTING MY NEW GIBSON LES PAUL IN THE STYLE OF JOE BONAMASSA)

There is a cool video by Laura Cox testing her new Gibson guitar.
The original YouTube video title is: "Testing my new Gibson Les Paul - In the style of Joe Bonamassa" See the TAB under the video.


LAURA COX TESTING MY NEW GIBSON LES PAUL TAB

PDF >>

Part 1

e-----------5-8/10p8---------8------------------------------------------
B---------5----------8-----8-----8-----12----12----12\10--10----10-\----
G-------5--------------9-------9----------------------------------------
D-----7---------------------------10/12----12----12-----10----10--------
A-0---------------------------------------------------------------------
E-----------------------------------------------------------------------


e-----------5-8/10p8-------8--------------------------------------------
B---------5----------8-------8---8-----12----12----12\10--10----10------
G-------5--------------9-------9----------------------------------------
D-----7---------------------------10/12----12----12-----10----10--10----
A-0---------------------------------------------------------------------
E-----------------------------------------------------------------------


e-----------5-8/10p8---------8------------------------------------------
B---------5----------8-----8-----8-----12----12----12\10--10----10-\----
G-------5--------------9-------9----------------------------------------
D-----7---------------------------10/12----12----12-----10----10--------
A-0---------------------------------------------------------------------
E-----------------------------------------------------------------------



e-----------5-8/10p8-------8--------------------------------------------
B---------5----------8-------8---8-----12----12----12\10--10~-----------
G-------5--------------9-------9----------------------------------------
D-----7---------------------------10/12----12----12-----10--------------
A-0---------------------------------------------------------------------
E-----------------------------------------------------------------------


e-----------------------------------------------------------------------
B-------5-------5-------------------------------------------------------
G-----5-----5-------5-----------7---------------------------------------
D-------------7-------7-------7-----------------------------------------
A-0-----------------------7/9-------------------------------------------
E-----------------------------------------------------------------------


e-----------------------------------------------------------------------
B-------5-------5-------------------------------------------------------
G-----5-----5---5---5---5-------7---------------------------------------
D-------------7-------7-------7-----------------------------------------
A-0-----------------------7/9-------------------------------------------
E-----------------------------------------------------------------------


e-----------------------------------------------------------------------
B-------5-------5-------------------------------------------------------
G-----5-----5-------5-----------7---------------------------------------
D---7---------7-------7-------7-----------------------------------------
A-0-----------------------7/9-------------------------------------------
E-----------------------------------------------------------------------


e-----------------------------------------------------------------------
B-------5-------5-------------------------------------------------------
G-----5-----5-----------------------------------------------------------
D-------------7---------------------------------------------------------
A-0---------------------------------------------------------------------
E---------------------------------\\\\\---------------------------------


Part 2

e-----------------------------------------------------------------------
B---------------------------------3---3-3-3-3---------------------------
G-0h2-2-2-2.--2-2.--2-2.--2-2-----0h2-2-2-2-2---------------------------
D-0h2-2-2-2.--2-2.--2-2.--2-2-----0---0-0-0-0-2-------------------------
A-0---0-0-0.--3-0.--3-0.--3-0-----------------2---------------3'--------
E---------------------------------------------0-----------3-5-----------


e-----------------------------------------------------------------------
B---------------------------------3---3-3-3-3---------------------------
G-0h2-2-2-2.--2-2.--2-2.--2-2-----0h2-2-2-2-2---------------------------
D-0h2-2-2-2.--2-2.--2-2.--2-2-----0---0-0-0-0-2-------------------------
A-0---0-0-0.--3-0.--3-0.--3-0-----------------2-------------------------
E---------------------------------------------0-----------\\\\\\--------


Part 3

e-----------------------------------------------------------------------
B-----------------------------------------------------------------------
G-----------------------------------------------------------------------
D-----------------5'------------------------------5-------7-------------
A-----7---5h7-------------7-5-7~------7-5-7~------5-------7-------------
E-0-----x-----0-------------------0-----------0---3-------5-------------


e-------------------------------------------------3---------------------
B-------------------------------------------------3---------------------
G-------------------------------------------------0-------2-------------
D-----------------5-4-----------------------------0-------2-------------
A-----7---5h7---------7-5-------------7p5-7~------2-------0-------------
E-0-----x-----0-----------7-5-3'--0-----------0---3---------------------


e-----------------------------------------------------------------------
B-----------------------------------------------------------------------
G-----------------------------------------------------------------------
D-----------------5'------------------------------5-------7-------------
A-----7---5h7-------------7-5-7~------7-5-7~------5-------7-------------
E-0-----x-----0-------------------0-----------0---3-------5-------------


e-----------------------------------------------------------------------
B-----------------------------------------------------------------------
G-----------------------------------------------------------------------
D-----------------5-4-----------------------------5-------7-------------
A-----7---5h7---------7-5-------------7p5-7~------5-------7-------------
E-0-----x-----0-----------7-5-3'--0-----------0---3-------5-------------


e---------0-------------------------------------------------------------
B---------0-------------------------------------------------------------
G-----------------------------------------------------------------------
D---2-------------------------------------------------------------------
A---2-------------------------------------------------------------------
E-x-0-------------------------------------------------------------------


Part 4

e-----------------------------------------------------------------------
B-----------8---------8---------8--------------10----------10---\-------
G-------7---------7---------7--------------9-----------9----------------
D-7/9-----------9-------9-----------9/11------------11------------------
A-----------------------------------------------------------------------
E-----------------------------------------------------------------------


e-----------------------------------------------------------------------
B-----------------------------------------------------------------------
G-----------------------------------------------------------------------
D---------2----------2-------------------2-----------2------------------
A-0h2----------------2-----------0h2-----------------2------------------
E-----3p0-0------x---0---x---x-------3p0-0-------x---0------------------


e-----------------------------------------------------------------------
B-----------------------------------------------------------------------
G-----------------------------------------------------------------------
D----------5'------5-7-7/9-5-7-5-------------5h7------------------------
A-/7-------------7---------------7-5-7~----------7-5-7~-----------------
E------------------------------------------------------------\\\--x-x---


e-----------------------------------------------------------------------
B-----------------------------------------------------------------------
G-----------------------------------------------------------------------
D----------5'------5-7-7/9-5-7-5---------------------2------------------
A-/7-------------7---------------7-5-7~------0h2------------------------
E------------------------------------------------3p0-0------------------


Part 5

e-----------------------------------------------------------------------
B-----------------------------------------------------------------------
G---------------------------------7-----9-------------2-----------------
D-------5-------------------------7-----9-------------2-----------------
A-5h7-7---7-5-----------2---------5-----7-------------0-----------------
E-------------7-0-3h5-5---5-3-0---------------0-0-3'------3'--0---------
      x       x x     x   x x

e-----------------------------------------------------------------------
B-----------------------------------------------------------------------
G---------------------------------7-----9-------------2-----------------
D-------5-------------------------7-----9-------------2-----------------
A-5h7-7---7-5-----------2---------5-----7-------------0-----------------
E-------------7-0-3h5-5---5-3-0---------------0-0-3'------3'--0---------


Part 6

e-----------------------------------------------------------------------
B-----------------------------------------------------------------------
G-----------------------------------------------------------------------
D--------5-----5-----7---5-7'----7---5h7--p5----------------------------
A-/7---------7-------------------------------7--p5-7.----7~-------------
E-----------------------------------------------------------------------


e-----------------------------------------------------------------------
B-----------------------------------------------------------------------
G-----------------------------------------------------------------------
D-----------------------------------------------------------------------
A-----5---7.----7~------------------------------------------------------
E-5-7---7---------------------------------------------------------------
  x x   x

e-----------------------------------------------------------------------
B-----------------------------------------------------------------------
G-----------------------------------------------------------------------
D--------5-----5-----7---5-7'----7---5-7--p5----------------------------
A-/7---------7-------------------------------7--p5-7.----7~-------------
E-----------------------------------------------------------------------


e-----------------------------------------------------------------------
B-----------------------------------------------------------------------
G-----------------------------------------------------------------------
D-----------------------------------------------------------------------
A-----5---7.----7~------------------------------------------------------
E-5-7---7---------------------------------------------------------------
  x x   x


e-----------------------------------------------------------------------
B-----------------------------------------------------------------------
G-----------------------------------------------------------------------
D-----------------------------------------------------------------------
A--------5-----5-----7---5-7'----7---5-7--p5----------------------------
E-/7---------7-------------------------------7--p5-7.----7~-------------


e-----------------------------------------------------------------------
B-----------------------------------------------------------------------
G-----------------------------------------------------------------------
D-----------------------------------------------------------------------
A-----0---2.----2~------------------------------------------------------
E-0-2---2---------------------------------------------------------------
  x x   x

e-----------------------------------------------------------------------
B-----------------------------------------------------------------------
G-----------------------------------------------------------------------
D--------5-----5-----7---5-7'----7---5-7--p5----------------------------
A-/7---------7-------------------------------7--p5-7.----7~-------------
E-----------------------------------------------------------------------


e-----------------------------------------------------------------------
B-----------------------------------------------------------------------
G-----------------------------------------------------------------------
D-----------------------------------------------------------------------
A-----5---7.----7~------------------------------------------------------
E-5-7---7---------------------------------------------------------------
  x x   x


Part 7

e-----------------------------------------------------------------------
B-----------------------------------------------------------------------
G-----------------------------------------------------------------------
D-------5-------------------------------5-------------------------------
A-5h7-------7---5---7-----7~----7-5h7-------7---5---7-----7~----7-------
E-----0---0---0---0---3p0-----0-------0---0---0---0---3p0-----0---------
      x   x   x   x           x x     x   x   x   x           x x

e-----------------------------------------------------------------------
B---------------------------------------------------------12~-----------
G-----------------------------------------------------------------------
D-------5-------------------------------5.------------------------------
A-5h7-------7---5---7-----7~------5h7.------7.--5.--7-------------------
E-----0---0---0---0---3p0-----0-0---------------------3p0---------------
      x   x   x   x          

e-----------------------------------------------------------------------
B-10p8'-----------8-10-12.--(15)-----(12)p10----10h12p10----------------
G-----------9~-------------------------------12----------12-9~----------
D-----------------------------------------------------------------------
A-----------------------------------------------------------------------
E-----------------------------------------------------------------------


e-----------------------------------------------------------------------
B-----8-10-(12)---(10)p8---10p8-----------------------------------------
G-7-9--------------------9------9~------7h9p7---9p7---------------------
D---------------------------------------------9-----9-7\5---7-5---------
A---------------------------------------------------------7-----7~------
E-----------------------------------------------------------------------


e-----------------------------------------------------------------------
B-----------------------------------------------------------------------
G-----------------------------------------------------------------------
D-0h2p0---2p0---------2~------------------------------------------------
A-------2-----2p0-------------------------------------------------------
E-----------------3p0---------------------------------------------------


Oh ... and I almost forgot

e-15-12-----------------------------------------------------------------
B------15-12-----15-12--------------------------------------------------
G-----------14-12-----14-12-----14-12-----------------------------------
D--------------------------14-12-----14-12-----14-12-----------14~---\\\
A-----------------------------------------14-12-----14-12---------------
E---------------------------------------------------------15-12---------