20140707

LENNY KRAVITZ IT AIN'T OVER TILL IT'S OVER TAB (SOLO COVER BY BRYAN CHANG)

Bryan Chang shows from very close how to play the solo part of this Lenny Kravitz song. There are also a few nice chords in the song.
See the TAB under the video.


LENNY KRAVITZ IT AIN'T OVER TILL IT'S OVER TAB

PDF >>

Solo

  A            B
e---------------------------16.-----------------------------------------
B-19(21)-------19.--19-19.-------19~---\\\------------------------------
G-----------------------------------------------------------------------
D-----------------------------------------------------------------------
A-----------------------------------------------------------------------
E-----------------------------------------------------------------------

           A                                  B
e-----------------------------------------------------------------------
B-------17~-----------------------------------------------14.-----------
G-16-18--------18-\\\-----------16(18)-------16.--16-16.-------16~---\\\
D-----------------------------------------------------------------------
A-----------------------------------------------------------------------
E-----------------------------------------------------------------------

               A
e-----------------------------------------------------------------------
B--------------9.--9-9.-------10(12)-----10.--9-------------------------
G-11(13)-----------------11.--------------------11.---------------------
D-----------------------------------------------------------------------
A-----------------------------------------------------------------------
E-----------------------------------------------------------------------



  B
e-----------------------------------------------------------------------
B--------------9.-------------------------------------------------------
G-11.--11-11.------11---\-----------------------------------------------
D-------------------------9-\-------------------------------------------
A-----------------------------------------------------------------------
E-----------------------------------------------------------------------

   C                                                           D
e-----------------------------------------------------------------------
B-----------------------------------------------------------------------
G-16h17p16.---15h16p15.---14h15p14.---13h14p13.---12h13p12.-------------
D-----------------------------------------------------------------------
A-----------------------------------------------------------------------
E-----------------------------------------------------------------------

       E
e-----------------------------------------------------------------------
B-15.--15(17)~~~--------------------------------------------------------
G-----------------------------------------------------------------------
D-----------------------------------------------------------------------
A-----------------------------------------------------------------------
E-----------------------------------------------------------------------


The Chords
   A      B      C      D      E
e--5------7-------------------------------------------------------------
B--5------7------5------7------9----------------------------------------
G--6------8------5------7------9----------------------------------------
D--7------9------5------7------9----------------------------------------
A--7------9------3------5------7----------------------------------------
E--5------7-------------------------------------------------------------


Verse chords

e-4-------4------4------2---2-------------------------------------------
B-6-------6------4------4---2-------------------------------------------
G-6-------5------4------3---2-------------------------------------------
D-----------------------------------------------------------------------
A-----------------------------------------------------------------------
E-----------------------------------------------------------------------


But most people play these chords

e-4-------4------4------2---2-------------------------------------------
B-6-------6------6------2---2-------------------------------------------
G-6-------5------4------3---2-------------------------------------------
D-6-------6------6------4---4-------------------------------------------
A-4-------4------4------4---4-------------------------------------------
E-----------------------2---2-------------------------------------------

and they sound cool as well ...