20140918

ONCE UPON A TIME IN MEXICO TAB (SPANISH GUITAR - EL MARIACHI)

The YouTube video title says: Once upon a time in Mexico - Spanish guitar.
You can hear 2 classical guitar lines at the same time. Nice melodies played in E minor.
See the TAB under the video.


ONCE UPON A TIME IN MEXICO TAB  (EL MARIACHI)

PDF >>

G1
e-----------------------------------------------------------------------
B-----------------------------------------------------------------------
G---------5-4-2-4-5---------------------4-4-4-2-2-2h4-------------------
D-----------------------------------------------------------------------
A-----------------------------------------------------------------------
E-----------------------------------------------------------------------

G2
e-----------------0-------3p2p0---0---------------0-------3-2-0---------
B-------------1-------------------------------0-------------------------
G---------2-----------2-------------------0-----------0-----------------
D-----2-------------------------------2---------------------------------
A-0---------------------------------------------------------------------
E---------------------------------0-------------------------------------


G1
e---------------------------------------0-0-2-3/5-7---------------------
B-----------------------------------------------------------------------
G------2-2--------4-----------------------------------------------------
D-----------------------------------------------------------------------
A-----------------------------------------------------------------------
E-----------------------------------------------------------------------


G2
e-----------------2-------------------------------0---------------------
B-------------0-----------0-------------------0-------------------------
G---------2-----------2-------------------0-----------0-----------------
D-----1-------------------------------2---------------------------------
A-2-----------------------------------------------------------0---------
E-----------------------------2/3-0-----------------------0-3-----------






G1
e-----------------------------------------------------------------------
B---------3-1-0-1-1-----------------------3-1p0h1-0---------------------
G-----------------------------------------------------------------------
D-----------------------------------------------------------------------
A-----------------------------------------------------------------------
E-----------------------------------------------------------------------

G2
e-----------------0-------------------------------0---------------------
B-------------1-----------1-------0-----------0-----------0-------------
G---------2-----------2-------------------0-----------0-------0---------
D-----2-----------------------2-------2---------------------------------
A-0-----------------------0---------------------------------------------
E---------------------------------0-------------------------------------


G1
e---------0-2-3-3/5-3-5-5/7-5-7-7/8-7-8-8/10-8-10-10/12-----------------
B-----------------------------------------------------------------------
G-----------------------------------------------------------------------
D-----------------------------------------------------------------------
A-----------------------------------------------------------------------
E-----------------------------------------------------------------------

G2
e-----------------2/3-2---0-----------------------0---0-2-2/3-2-0-------
B-0-----------0-------------------------------0-------------------------
G-2-------2-------------------0-----------0-----------------------------
D-----1-------------------------------2---------------------------------
A-2---------------------------------------------------------------------
E---------------------------------0-------------------------------------


G1
e---------0-2-3-5-5/7---------------------7h8-7-5-7-7-------------------
B---------------------------------------------------------7p5-5-5-------
G-----------------------------------------------------------------------
D-----------------------------------------------------------------------
A-----------------------------------------------------------------------
E-----------------------------------------------------------------------

G2
e-----------------0---0-2-3---5-7-7---------------3---------------------
B-1-----------1-------------------------------5-------5---0-------------
G---------2-----------------------------------4-----------0---0---------
D-----2-----------------------------------2-----------------------------
A-0---------------------------------------------------------------------
E-----------------------------------------------------------------------


G1
e-----------------------------------------------------------------------
B-5\4--4-4-4-5-5/7-7--------------7h8--7h8p7p5-7-5-7-5------------------
G-----------------------------------------------------------------------
D-----------------------------------------------------------------------
A-----------------------------------------------------------------------
E-----------------------------------------------------------------------

G2
e-----------------2-------------------------------0---------------------
B-------------0-----------0-------------------0-----------0-------------
G---------2-----------2-------2-----------0-----------0-----------------
D-----1-------------------------------2-----------------------2---------
A-2---------------------------------------------------------------------
E---------------------------------0-------------------------------------


G1
e-2---3---3---5.--5/7-------------2---3---3---5.--5/7-------------------
B-----------------------------------------------------------------------
G-----------------------------------------------------------------------
D-----------------------------------------------------------------------
A-----------------------------------------------------------------------
E-----------------------------------------------------------------------

G2
e-----------------0-------------------------------0---------------------
B-1-----------3-----------3---1---0-----------3-----------3-p-0---------
G---------2-------------------------------0-----------0-----------------
D-----2-------------------------------2---------------------------------
A-0---------------------------------------------------------------------
E---------------------------------0-------------------------------------


G1
e-2---3---3---5.--5/7-----8-------7-----------12--12--------------------
B-----------------------------------------------------------------------
G-----------------------------------------------------------------------
D-----------------------------------------------------------------------
A-----------------------------------------------------------------------
E-----------------------------------------------------------------------

G2
e-----------------2-/-3---2-p-0---0---------------0-------0-------------
B-0-----------0-------------------------------0-------------------------
G-2-------2-------------------------------0-----------0-------0---------
D-----1-------------------------------2---------------------------------
A-2---------------------------------------------------------------------
E---------------------------------0-------------------------------------


G1
e-2---3---5-/-7---7---------------2-h-3---3---5.--5/7-------------------
B-----------------------------------------------------------------------
G-----------------------------------------------------------------------
D-----------------------------------------------------------------------
A-----------------------------------------------------------------------
E-----------------------------------------------------------------------

G2
e-------------------------0-----------------------0---------------------
B-1-------1---1---1-----1-----1---0-------0---0-------------------------
G-------2-------------2-----2---2---0---0---0---0-----------------------
D-----2-----2---2---2-----------------2---------------------------------
A-0---------------------------------------------------------------------
E---------------------------------0-------------------------------------


G1
e-----------------------------------------------------------------------
B-7-------------5-4-------5-/-7---5-------------------------------------
G-----------------------------------------------------------------------
D-----------------------------------------------------------------------
A-----------------------------------------------------------------------
E-----------------------------------------------------------------------

G2
e-2---------------2/3-2---0-h-2---0---------------0-------2-/-3---------
B-------------0-------------------------------0-------------------------
G---------2-------------------------------0-----------0-----------------
D-----1-------------------------------2---------------------------------
A-2---------------------------------------------------------------------
E---------------------------------0-------------------------------------


G1
e--------------------12--12-12-12p10-10-10\8-8-8\7-7.-------------------
B-----------------------------------------------------------------------
G-----------------------------------------------------------------------
D-----------------------------------------------------------------------
A-----------------------------------------------------------------------
E-----------------------------------------------------------------------

G2
e-----------------0-------2-/-3-------------------0-------2-/-3---------
B-1-----------1-------------------------------0-------------------------
G---------2-----------2-------------------0-----------0-----------------
D-----2-------------------------------2---------------------------------
A-0---------------------------------------------------------------------
E---------------------------------0-------------------------------------


G1
e-----------------------------------------------------------------------
B-----------------------------------------------------------------------
G-----------------------------------------------------------------------
D-----------------------------------------------------------------------
A-----------------------------------------------------------------------
E-----------------------------------------------------------------------

G2
e-2-----------------------2/3-2---0---------------0-------2-/-3---------
B-----------------0---------------------------0-------------------------
G-------------2-------2-------------------0-----------0-----------------
D---------1---------------------------2---------------------------------
A-2-------2-------------------------------------------------------------
E---------------------------------0-------------------------------------


G1
e-----------------------------------------------------------------------
B-----------------------------------------------------------------------
G-----------------------------------------------------------------------
D-----------------------------------------------------------------------
A-----------------------------------------------------------------------
E-----------------------------------------------------------------------

G2
e-0---------------0-------2-/-3---0---------------0---------------------
B-------------1-------------------------------0-------------------------
G---------2-----------2-------------------0-----------------------------
D-----2-------------------------------2---------------------------------
A-0---------------------------------------------------------------------
E---------------------------------0-------------------------------------