20150131

RADE SERBEDZIJA MENI SE DUSO OD TEBE NE RASTAJE TAB

Beautiful song from Croatia. Rade Serbedzija - Meni Se Duso Od Tebe Ne Rastaje.
Great solo parts and a nice chord progression with a single acoustic guitar.
See the TAB under the video.




RADE SERBEDZIJA MENI SE DUSO OD TEBE NE RASTAJE TAB

PDF >>

Solo 1

  D               G                       D
e-----------------------------------------------------------------------
B-2/3---------3---5---3-----------2/3-----------------------------------
G--------------------------------------4--2--------------4---2----------
D----------------------------------------------------3/4---4------------
A-----------------------------------------------------------------------
E-----------------------------------------------------------------------

      G                                           D
e-----------------------------------------------------------------------
B-2/3-3---3--3---------5--5/7--7----------3--5--5/7--5--3---------------
G-----------------------------------------------------------------------
D-----------------------------------------------------------------------
A-----------------------------------------------------------------------
E-----------------------------------------------------------------------


e-----------------------------------------------------------------------
B-3--5--7---5h7p5--3----------------------------------------------------
G-----------------------------------------------------------------------
D-----------------------------------------------------------------------
A-----------------------------------------------------------------------
E-----------------------------------------------------------------------




Verse

D G / D / D G / D //


Chorus

F#m G / F#m A / E7 G / D //


Verse

D G / D / D G / D //


Chorus

F#m G / F#m A / E7 G / D //



Solo 2
 
  D                           G                    D
e-----------------------------------------------------------------------
B-----------------------------------------------------------------------
G-----------------------------------------------------------------------
D-------------4-7/9---7-----------5--4--5--4---5-7-4-h5p4\2---4---------
A-55555---7-------------------------------------------------------------
E-----------------------------------------------------------------------

                D                               G
e-----------------------------------------------------------------------
B-----------------------------------------------------------------------
G---------------2---4---2h4p2-------------------------------------------
D---------2-4-5---------------4---2h4p2p0-0--2--2---0-------------------
A---2-4-5---------------------------------------------------------------
E-5---------------------------------------------------------------------

             D
e------------------------------------5----------------------------------
B--------------------------3--5--5/7-----7------------------------------
G---------------2------2-4----------------------------------------------
D-2---0-2-0-2/4---------------------------------------------------------
A-----------------------------------------------------------------------
E-----------------------------------------------------------------------

          F#m              G                    F#m
e---5-7-9-9---5-5--------------------7-9-10-9-7-9-----------------------
B--7--------------7-7----------8-8-8---------------7-7-7\5-7------------
G-7---------------------------------------------------------------------
D-----------------------------------------------------------------------
A-----------------------------------------------------------------------
E-----------------------------------------------------------------------

          A
e-----------------------------------------------------------------------
B-5h7p5---7-\-5--5------------------------------------------------------
G-----------------------------------------------------------------------
D-----------------------------------------------------------------------
A-----------------------------------------------------------------------
E-----------------------------------------------------------------------

  E7                      G                          D
e-----------------------------------------------------------------------
B-------3-5(6)(5)p3-5--3--5p3---3-------3-3---3--3--5/7.-3.--3-----3----
G-----4-------------------------------4-----4--------------------4------
D-5/6-------------------------------------------------------------------
A-----------------------------------------------------------------------
E-----------------------------------------------------------------------


e-----------------------------------------------------------------------
B-----------------------------------------------------------------------
G-4\2---2-----2---------------------------------------------------------
D-----4---3h4---3h4-0---4-0---------------------------------------------
A---------------------2-----2-0-5---\-----------------------------------
E-----------------------------------------------------------------------



Verse

D G / D / D G / D //


Chorus

F#m G / F#m A / E7 G / D /

E7 G / D / E7 G / D /

E7 G / D //



Chords

   D      G     F#m     A      E7
e--2------3------2------0------0--------0-------------------------------
B--3------0------2------2------3--------0-------------------------------
G--2------0------2------2------1---or---1---- as you like it -----------
D--0------0------4------2------2--------0-------------------------------
A---------2------4------0------2--------2-------------------------------
E---------3------2-------------0--------0-------------------------------