20150628

TOOL RIGHT IN TWO TAB (ACOUSTIC COVER BY SHAMETHEDOG)

Great acoustic guitar cover of Right In Two by Tool.
The song is played in Dropped D tuning.
See the TAB under the video.


TOOL RIGHT IN TWO TAB

GP5 + GP6 + PDF >> 

Part 1

e-----------------------------------------------------------------------
B-----------------------------------------------------------------------
G-----------------------------------------------------------------------
D-----------7/10---------10-----------7--------12-----------------------
A---------5------------8----0-------5---0-------------------------------
D---0------------8------------5-----------10----------------------------


e-----------------------------------------------------------------------
B-----------------------------------------------------------------------
G-----------------------------------------------------------------------
D-----------7/10---------10-----------7--------12h13--------------------
A---------5------------8----0-------5---0-------------------------------
D---0------------8------------5-----------10----------------------------


e-----------------------------------------------------------------------
B-----------------------------------------------------------------------
G-----------------------------------------------------------------------
D-----------7/10---------10-----------7--------12-----------------------
A---------5------------8----0-------5---0-------------------------------
D---0------------8------------5-----------10----------------------------



e-----------------------------------------------------------------------
B-----------------------------------------------------------------------
G-----------------------------------------------------------------------
D-----------7/10---------10-----------7--------12h13--------------------
A---------5------------8----0-------5---0-------------------------------
D---0------------8------------5-----------10----------------------------



Part 2

e-----------------------------------------------------------------------
B-----------------------------------------------------------------------
G-----------7-----------7-----------7-----------------------------------
D-------x-----------x-----------x-------10------------------------------
A---------8---8-------8---8-------8---8------10-------------------------
D---0-----------0-----------0-------------------------------------------
    x     x x x x     x x x x     x x x x    x


e-----------------------------------------------------------------------
B-----------------------------------------------------------------------
G-----------7-----------7-----------7-----------------------------------
D-------x-----------x-----------x-------10------------------------------
A---------8---8-------8---8-------8---8------10-------------------------
D---0-----------0-----------0-------------------------------------------
    x     x x x x     x x x x     x x x x    x


e-----------------------------------------------------------------------
B-----------------------------------------------------------------------
G-----------7-----------7-----------7-----------------------------------
D-------x-----------x-----------x-------10------------------------------
A---------8---8-------8---8-------8---8------10-------------------------
D---0-----------0-----------0-------------------------------------------
    x     x x x x     x x x x     x x x x    x


e-----------------------------------------------------------------------
B-----------------------------------------------------------------------
G-----------7-----------7-----------7-----------------------------------
D-------x-----------x-----------x-------10------------------------------
A---------8---8-------8---8-------8---8------10-------------------------
D---0-----------0-----------0-------------------------------------------
    x     x x x x     x x x x     x x x x    x


Part 3

e-----------------------------------------------------------------------
B-----------------------------------------------------------------------
G-----------------------<7>---------------------------------------------
D-------------------------------------<7>----------12-------------------
A---------<7>-----------------------------------------------------------
D---0-------------8-------------5-------------10------------------------




DOWNLOAD THIS TAB IN GUITAR PRO



  • click 'Free Download'
  • add your e-mail address
  • you will get an e-mail with your download links (in a few seconds)
  • download the Guitar Pro 6 tab + GP5 + PDF for free
  • and that's all ...


Guitar Pro: a complete workshop for guitarists at an affordable price