20150730

EMINEM MOCKINGBIRD GUITAR TAB (COVER BY D7AVE)


Eminem Mockingbird Guitar played by d7ave.
He is using 1.5 step down tuning. (each string 3 frets lower)
See the TAB under the video.



EMINEM MOCKINGBIRD GUITAR TAB

GP5 + GP6 + PDF >> 

Part 1

Db-------3---3---3/5---3---2---2----------------------------------------
Ab---0-----------------------------0------------------------------------
E----0-------------------------------0----------------------------------
B----2------------------------------------------------------------------
Gb---2-----------------3------------------------------------------------
Db---0------------------------------------------------------------------


Db---2---2-2-3p2-0-----------0------------------------------------------
Ab---------------------0-------0----------------------------------------
E--------------------0-----0-----0--------------------------------------
B----0------------------------------------------------------------------
Gb----------------------------------------------------------------------
Db---------------0------------------------------------------------------


Db---0------------------------------------------------------------------
Ab---0---0---0---0-------0---0---0--------------------------------------
E----0-------------0-2-------------0------------------------------------
B----2---------------x--------------------------------------------------
Gb---2---------------3--------------------------------------------------
Db---0------------------------------------------------------------------



Db---------------------------0------------------------------------------
Ab-------0-------------0-------0----------------------------------------
E----2-------------------0-------0--------------------------------------
B----0-------5-4-2---2-----2--------------------------------------------
Gb---------------2------------------------------------------------------
Db---------------0------------------------------------------------------


Db-------3---3---3/5---3---2---2----------------------------------------
Ab---0-----------------------------0------------------------------------
E----0-------------------------------0----------------------------------
B----2------------------------------------------------------------------
Gb---2-----------------3------------------------------------------------
Db---0------------------------------------------------------------------




DOWNLOAD THIS TAB IN GUITAR PRO



  • click 'Free Download'
  • add your e-mail address
  • you will get an e-mail with your download links (in a few seconds)
  • download the Guitar Pro 6 tab + GP5 + PDF for free
  • and that's all ...


Guitar Pro: a complete workshop for guitarists at an affordable price