20150813

ELLERT NORDMARK LILLA VACKRA ANNA TAB


Ellert Nordmark plays Lilla Vackra Anna.
Download the Guitar Pro Tab below.



ELLERT NORDMARK LILLA VACKRA ANNA TAB

GP5 + GP6 + PDF >>

Part 1

e-----------------------------------------------------------------------
B-----------------------------------------------------------------------
G-----------------------------------------------------------------------
D---2-------2.--2.--2---------------------------------------------------
A---0-------0.--0.--0---------------------------------------------------
E-----------------------------------------------------------------------


e-----------------------------------------------------------------------
B-----------------------------------------------------------------------
G-----------------------------------------------------------------------
D---------------------2---2---------------------------------------------
A-----0---0---4---4-----------0-0---------------------------------------
E---0---------------------------------4---------------------------------


e-----------------------------------------------------------------------
B-----------------------------------------------------------------------
G---------------------1---1---------------------------------------------
D-------------2---2-----------0-0---------------------------------------
A-----2---2---------------------------4---------------------------------
E---4-------------------------------------------------------------------



e-----------------------------------------------------------------------
B-----------------------------------------------------------------------
G-----------------------------------2-----2-----2-----------------------
D-----2---2-----2-----------------------------4---4.--0-0---------------
A---4---------4-------0-------2-3-4-----------------------4---2---0-----
E-----------------------------------------------------------------------


e-----------------------------------------------------------------------
B-----------------------------------------------------------------------
G-----------------------------------------------------------------------
D-----------0-----4---4-2---0-------------------------------------------
A-------2-------2---------------2---0-----------------------------------
E---4-------------------------------------------------------------------



Part 2

e-----------------------------------------------------------------------
B---------------------5---5---------------------------------------------
G-------------6---6-----------------------------------------------------
D-----7---7-------------------7-7-----6---------------------------------
A---7-------------------------------------------------------------------
E-----------------------------------------------------------------------


e---------------------4---4---------------------------------------------
B-------------5-5-------------------------------------------------------
G---2/4---4-------------------7-7-----6---------------------------------
D-----------------------------------------------------------------------
A-----------------------------------------------------------------------
E-----------------------------------------------------------------------




DOWNLOAD THIS TAB IN GUITAR PRO



  • click 'Free Download'
  • add your e-mail address
  • you will get an e-mail with your download links (in a few seconds)
  • download the Guitar Pro 6 tab + GP5 + PDF for free
  • and that's all ...


Guitar Pro: a complete workshop for guitarists at an affordable price