20150924

RICKY KING LE REVE (THE DREAM) TAB (COVER BY DAVE MONK)

Dave Monk 's guitar cover of Le Reve (The Dream) by Ricky King.
Nice tremolo bar use.
See the TAB under the video.



RICKY KING LE REVE (THE DREAM) TAB

PDF >>

Part 1

e---7---7---7---7--------------------------------7----------------------
B-------------------10---8---8---7-----------8--------------------------
G------------------------------------9---9------------------------------
D-----------------------------------------------------------------------
A-----------------------------------------------------------------------
E-----------------------------------------------------------------------


e---12---12---12---12---10----------------------------------------------
B------------------------------13-13---12h13p12---10---10---12---13-----
G-----------------------------------------------------------------------
D-----------------------------------------------------------------------
A-----------------------------------------------------------------------
E-----------------------------------------------------------------------


e------------------11---------------------------------------------------
B---12---13---12--------13---12---12---10-------------------------------
G-------------------------------------------12---12---11---9------------
D-----------------------------------------------------------------------
A-----------------------------------------------------------------------
E-----------------------------------------------------------------------




e-----------------------------------------------------------------------
B-----------------------------------------------------------------------
G---11---11---11---11---12---11\--9---9---9---9---\---------------------
D-----------------------------------------------------------------------
A-----------------------------------------------------------------------
E-----------------------------------------------------------------------



Part 2

e---------4---4-----4-4-------------------------------------------------
B-----5-7-----------------7-----5-5\4-4---4---4---3/4-4-----------------
G---4-------------------------------------------------------------------
D-----------------------------------------------------------------------
A-----------------------------------------------------------------------
E-----------------------------------------------------------------------


e---7/9---9---9---9---11-----9-9------------------9---11h12-12---12-----
B----------------------------------12-----12-12-------------------------
G-----------------------------------------------------------------------
D-----------------------------------------------------------------------
A-----------------------------------------------------------------------
E-----------------------------------------------------------------------


e---12-12---11\10-10---9---9-----9-9------------------------------------
B--------------------------------------12---10\9-9---9------------------
G-----------------------------------------------------------------------
D-----------------------------------------------------------------------
A-----------------------------------------------------------------------
E-----------------------------------------------------------------------


e-----------------------------------------------------------------------
B---9-9-10-7------------------------------------------------------------
G----------------8-9-------9---9----------------------------------------
D-----------------------------------------------------------------------
A-----------------------------------------------------------------------
E-----------------------------------------------------------------------



Part 3

e---7---7---7---7--------------------------------7-/--------------------
B-------------------10---8---8---7-----------8--------------------------
G------------------------------------9---9------------------------------
D-----------------------------------------------------------------------
A-----------------------------------------------------------------------
E-----------------------------------------------------------------------


e---12---12---12---12---10----------------------------------------------
B------------------------------13-13---12---10---10---12---13-----------
G-----------------------------------------------------------------------
D-----------------------------------------------------------------------
A-----------------------------------------------------------------------
E-----------------------------------------------------------------------


e------------------11---------------------------------------------------
B---12---13---12--------13---12---12---10-------------------------------
G-------------------------------------------12---12---11\--9------------
D-----------------------------------------------------------------------
A-----------------------------------------------------------------------
E-----------------------------------------------------------------------


e-----------------------------------------------------------------------
B-----------------------------------------------------------------------
G---11---11---11---11---12---11\--9---9---9---9-------------------------
D-----------------------------------------------------------------------
A-----------------------------------------------------------------------
E-----------------------------------------------------------------------



Part 4

e---------4---4-----4-4-------------------------------------------------
B-----5-7-----------------7-----5-5\4-4---4---4---3h4-4-----------------
G---4-------------------------------------------------------------------
D-----------------------------------------------------------------------
A-----------------------------------------------------------------------
E-----------------------------------------------------------------------


e---7/9---9---9---9---11-----9-9------------------9---11h12-12---12-----
B----------------------------------12-----12-12-------------------------
G-----------------------------------------------------------------------
D-----------------------------------------------------------------------
A-----------------------------------------------------------------------
E-----------------------------------------------------------------------


e---12-12---11\--10---9---9---9---9-------------------------------------
B-------------------------------------12---10\9-9---9-------------------
G-----------------------------------------------------------------------
D-----------------------------------------------------------------------
A-----------------------------------------------------------------------
E-----------------------------------------------------------------------


e-----------------------------------------------------------------------
B---9-9-10-7------------------------------------------------------------
G----------------8-9-------9---9----------------------------------------
D-----------------------------------------------------------------------
A-----------------------------------------------------------------------
E-----------------------------------------------------------------------



Part 5

e---------5---5-----5-5-------------------------------------------------
B-----6-8-----------------8-----6-6\5-5---5---5---4h5-5-----------------
G---5-------------------------------------------------------------------
D-----------------------------------------------------------------------
A-----------------------------------------------------------------------
E-----------------------------------------------------------------------


e---8/10---10---10---10---12-----10-10----------------------------------
B----------------------------------------13-----------------------------
G-----------------------------------------------------------------------
D-----------------------------------------------------------------------
A-----------------------------------------------------------------------
E-----------------------------------------------------------------------


e-----------10---12h13-13---13-----13-13---12\11-11---10---10-----------
B---13-13---------------------------------------------------------------
G-----------------------------------------------------------------------
D-----------------------------------------------------------------------
A-----------------------------------------------------------------------
E-----------------------------------------------------------------------


e---10-10---------------------------------------------------------------
B-----------13---11------  The End :)  ---------------------------------
G-----------------------------------------------------------------------
D-----------------------------------------------------------------------
A-----------------------------------------------------------------------
E-----------------------------------------------------------------------