20151122

ONCE UPON A TIME IN MEXICO SPANISH GUITAR INTRO TAB


Antonio Banderas, playing the guitar about 0:50.
Once Upon a Time in Mexico guitar intro.
See the TAB under the video.



ONCE UPON A TIME IN MEXICO SPANISH GUITAR INTRO TAB

PDF >>

Part 1

e-----------------------------------------------------------------------
B-----------5-----------5-----------5-----------------------------------
G-----6---6-6-----6---6-6-----6---6-6---7p6-7---------------------------
D---7---7---7---7---7---7---7---7---7-----------------------------------
A-----------0-----------0-----------0-----------------------------------
E-----------------------------------------------------------------------


e-----------------------------------------------------------------------
B-----------6-----------6---6/8-----6-6\5-5p3-5~------------------------
G-----7---7-7-----7---7-7-----------------------------------------------
D---7---7---7---7---7---7-----------------------------------------------
A-----------5-----------5-----------------------------------------------
E-----------------------------------------------------------------------


e-----------3-----------3---3/5-----------------------------------------
B-----5---5-5-----5---5-5-----------8-8p6-6p5-6~------------------------
G---5---5---5---5---5---5-----------------------------------------------
D-----------------------------------------------------------------------
A-----------------------------------------------------------------------
E-----------------------------------------------------------------------




e---1-3-5p3p1p0-3p1p0---1p0-----0---------------------------------------
B---------------------3-----3p1---3p1p0-3p1p0---1-----------------------
G---------------------------------------------2---2p1h2p1---1-----------
D---------------------------------------------------------3---3p2~------
A-----------------------------------------------------------------------
E-----------------------------------------------------------------------