20160101

METALLICA NOTHING ELSE MATTERS AWESOME INTRO TAB (LIVE IN SIDNEY)

Awesome intro of Nothing Else Matters live in Sydney.
Until about 0:45 and then comes the original song.
Half-step down tuning. TAB under the video.


NOTHING ELSE MATTERS AWESOME INTRO TAB (LIVE)

PDF >>

eb----------------------------------------------------------------------
Bb----------------------------------------------------------------------
Gb----------------------------------------------------------------------
Db-----6-7-7/9\7p6------------------------------------------------------
Ab---7-------------7~---------------------------------------------------
Eb----------------------0-----------------------------------------------


eb----------------------------------------------------------------------
Bb----------------------------------------------------------------------
Gb-----9.---------------------------------------------------------------
Db----9----8-6----------------------------------------------------------
Ab---x---------9-7-6-7-7/9\7-6----------6-7-----------------------------
Eb-----------------------------7~-----------0---------------------------


eb----------------------------------------------------------------------
Bb----------------------------------------------------------------------
Gb----------------------------------------------------------------------
Db-----------------9-8-6------------------------------------------------
Ab---6-7-7/9\7-6---------9-7-6-7~---------------------------------------
Eb---------------7------------------0-----------------------------------



eb--12--------12h14p12--12----------------------------------------------
Bb--12h14p12------------12h14p12----------------------------------------
Gb--------------------------------12h14p12------------------------------
Db------------------------------------------12h14p12--------------------
Ab----------------------------------------------------12h14p12----------
Eb--------------------------------------------------------------0-------


eb--12--------12.----7-------7.-------------2.-------------0------------
Bb--12h14-----12.----7h9-----7.-----2h4-----2.--------------------------
Gb--12------------------------------------------------------------------
Db----------------------------------------------------------------------
Ab------------------------------------------------2---------------------
Eb------------------------------------------------0---------------------


eb---------------0------------------------------------------------------
Bb-----------0-----0-------------0---------------2h3p2------------------
Gb---------0---------0---------2---2-----------2------2-----------------
Db-------2-------------------1-------1-------2-----------2--------------
Ab-----2-----------------2---------------0------------------------------
Eb---0------------------------------------------------------------------


eb----------------------------------------------------------------------
Bb---------------------------7------------------------------------------
Gb---------5-5-----------------7----------------------------------------
Db-------5-----5---------7-7-----7--------------------------------------
Ab---3-----------3-/-5-------------5------------------------------------
Eb-----------------------------------0----------------------------------


eb----------------------------------------------------------------------
Bb---8h10p8-----8-------------------10-9h10-9------9--------7-----------
Gb---7------7-7---7---------------9-9--9----9-11-9-9h11p9---7h9p7-------
Db------------------7--------9-11---------------------------------------
Ab--------------------7-9-12--------------------------------------------
Eb----------------------------------------------------------------------


eb----------------------------------------------------------------------
Bb----------------------------------------------------------------------
Gb-------7h9-9/12.--9~-----\--------------------------------------------
Db---7h9----------------------------------------------------------------
Ab---------------------------2------------------------------------------
Eb---------------------------0------------------------------------------