20160901

ERIC TINGSTAD DANZA MORA TAB (LEAD GUITAR LINE, GUITAR PRO)

Eric Tingstad - Danza Mora, great instrumental guitar song.
Sometimes there are 2 lead guitar lines in the song.
See the TAB under the video.



ERIC TINGSTAD DANZA MORA TAB

GP5 + GP6 + PDF >>

Part 1

e--------------------5-----------------------6---5~---------------------
B---------------5h6h8-----8----6---5----8-------------------------------
G---7~------------------------------------------------------------------
D-----------------------------------------------------------------------
A-----------------------------------------------------------------------
E-----------------------------------------------------------------------


e---6---p5--------------------------------------------------------------
B-------------8---8~-----------------------6---5~-----------------------
G--------------------------------6---h7---------------------------------
D-----------------------------------------------------------------------
A-----------------------------------------------------------------------
E-----------------------------------------------------------------------


e--------5~---------6--p5~-------------10~----------9h10p9--------------
B---5h6h8-------------------------------------------------10~-----------
G-----------------------------------------------------------------------
D-----------------------------------------------------------------------
A-----------------------------------------------------------------------
E-----------------------------------------------------------------------




e-----------------------------------10~--------12p10\9~-----------------
B---8----8----10---8~---------------------------------------------------
G-----------------------------------------------------------------------
D-----------------------------------------------------------------------
A-----------------------------------------------------------------------
E-----------------------------------------------------------------------




DOWNLOAD THIS TAB IN GUITAR PRO



  • click 'Free Download'
  • add your e-mail address
  • you will get an e-mail with your download links (in a few seconds)
  • download the Guitar Pro 6 tab + GP5 + PDF for free
  • and that's all ...


Guitar Pro: a complete workshop for guitarists at an affordable price