20160925

FUNTWO IT'S OK TAB (FUNTWO'S ORIGINAL SONG)


Funtwo's original song called It's OK - a song written to encourage you on harder days.
Download the GP5, GP6 and PDF files below.



FUNTWO IT'S OK TAB

GP5 + GP6 + PDF >>

e-------2---x------------------------------2---x------------------------
B-------3---x-2.-2.-2.-3-------------------3---x-2.-2.-2.-0-------------
G-------------2.-2.-2.-2-------------------------2.-2.-2.-0-------------
D---0-------x--------------------------0-------x------------------------
A-----------------------------------------------------------------------
E-------------2.-2.-2.-3-------------------------2.-2.-2.-3-------------


e-----------------------------------------------------------------------
B-----------------------------------------------------------------------
G---7---7~--p6----------------------------------------------------------
D--------------7----7h9~-----p7-7---------------------------------------
A----------------9.-----------------------------------------------------
E-----------------------------------------------------------------------


e-----------------------------------------------------------------------
B-----------------------------------------------------------------------
G-----------4-4------------7/9\7.-6~------------------------------------
D---5\4/5h7-----7.-5\4/5---------------7--------------------------------
A-----------------------------------------------------------------------
E-----------------------------------------------------------------------



e-----------------------------------------------------------------------
B--------------------------10-------------------------------------------
G---7---7~--\6---------6h7----------------------------------------------
D---x----------7---7-9--------------------------------------------------
A---x------------9------------------------------------------------------
E-----------------------------------------------------------------------


e-----------------------------------------------------------------------
B---8p7----7-h8---------------------------------------------------------
G-------9.------7~-----------6(7)(6)-7~-------\-------------------------
D--------------------9---7\5--------------------------------------------
A-----------------------------------------------------------------------
E-----------------------------------------------------------------------


e-------2---x----------------------5-------2---x------------------------
B-------3---x-2.-2.-2.-3-------x-5---5-----3---x-2-----2.-3-------------
G-------------2.-2.-2.-2-------x---------2-----x-2-----2.-3-------------
D---0-------x--------------------------0-------x------------------------
A-----------------------------------------------------------------------
E-------------2.-2.-2.-3-------x-----------------2--2-----3-------------




DOWNLOAD THE COMPLETE TAB HERE





  • click 'Buy Now' and send $6  (or 'Add to Cart' if you want to buy more tabs)
  • add your e-mail address
  • you will get a confirmation e-mail with your download links (in a few seconds)
  • download the full Guitar Pro 6 tab + GP5 + PDF
  • then start to learn the full song - that's all ...

IF YOU DIDN'T GET YOUR DOWNLOAD LINK, PLEASE CONTACT US HERE >>

SEND YOUR GUITAR TAB REQUEST HERE >>
MORE ON GUITAR TABS A-Z >>

Guitar Pro: a complete workshop for guitarists at an affordable price