20161020

BOB DYLAN BOOTS OF SPANISH LEATHER TAB (GUITAR COVER)

Bob Dylan's Boots of Spanish Leather guitar cover.
Standard tuning + CAPO on the 3rd fret.
See the TAB under the video.



BOB DYLAN BOOTS OF SPANISH LEATHER TAB

GP5 + GP6 + PDF >>

Intro                        CAPO on the 3rd

e-------------------0---------------------------------------------------
B-------------3-----------3---------1---------1-----0---------0---------
G---------0-------------------0-----------0---------------0-------------
D-------4-------4-------4-------4-------0-------0-------0-------0-------
A-----------------------------------------------------------------------
E---0-------0-------0-------0-------2-------2-------3-------3-----------


e-----------------------------------------------------------------------
B---1---------1-----0---------0-----0---------0-------------------------
G---------0---------------0---------------0-----------------------------
D-------2-------2-------0-------0-------0-------0-----------------------
A-----------------------------------------------------------------------
E---3-------3-------3-------3-------3-------3---------------------------


e-----------------------------------------------------------------------
B---3---------3-----1---------1-----0---------0-----0---------0---------
G---------0---------------0---------------0---------------0-------------
D-------4-------4-------0-------0-------0-------0-------0-------2/9-----
A-----------------------------------------------------------------------
E---0-------0-------2-------2-------3-------3-------3-------3-----------



e-----------------------------------0-----------------------------------
B---8---------8-----8-----7---5---/-------1-----------------------------
G---------0-----------------------------------0-------------------------
D-------9-------9-------9-------7-------2-------2-----------------------
A-----------------------------------3-------3---------------------------
E---0-------0-------0-------0-------------------------------------------


e-----------------------------------------------------------------------
B---0---------0-----0---------0-----------------------------------------
G---------0---------------0---------------------------------------------
D-------0-------0-------0-------0---------------------------------------
A-----------------------------------------------------------------------
E---3-------3-------3-------3-------------------------------------------


e-----------------------------------------------------------------------
B---3---------3-----1---------1-----1---------1-------------------------
G---------0---------------0---------------0-----------------------------
D-------4-------4-------0-------0-------2-------2-----------------------
A-----------------------------------------------------------------------
E---0-------0-------2-------2-------3-------3---------------------------


e-----------------------------------------------------------------------
B---0---------0-----0---------0-----0---------0-------------------------
G---------0---------------0---------------0-----------------------------
D-------0-------0-------0-------0-------0-------0-----------------------
A-----------------------------------------------------------------------
E---3-------3-------3-------3-------3-------3---------------------------



Verse

e-------------------0---------------------------------------------------
B-------------3-----------3---------1---------1-----0---------0---------
G---------0-------------------0-----------0---------------0-------------
D-------4-------4-------4-------4-------0-------0-------0-------0-------
A-----------------------------------------------------------------------
E---0-------0-------0-------0-------2-------2-------3-------3-----------


e-----------------------------------------------------------------------
B---1---------1-----0---------0-----------------------------------------
G---------0---------------0---------------------------------------------
D-------2-------2-------0-------0---------------------------------------
A-----------------------------------------------------------------------
E---3-------3-------3-------3-------------------------------------------


e-----------------------------------------------------------------------
B-------------3-----1---------1-----0---------0-------------------------
G---------0---------------0---------------0-----------------------------
D-------4-------4-------0-------0-------0-------0-----------------------
A-----------------------------------------------------------------------
E---0-------0-------2-------2-------3-------3---------------------------


e-----------------------------------------------------------------------
B---1---------1-----0---------0-----------------------------------------
G---------0---------------0---------------------------------------------
D-------2-------2-------0-------0---------------------------------------
A-----------------------------------------------------------------------
E---3-------3-------3-------3-------------------------------------------


e-------------------0---------------------------------------------------
B-------------3-----------3---------1---------1-----0---------0---------
G---------0-------------------0-----------0---------------0-------------
D-------4-------4-------4-------4-------0-------0-------0-------0-------
A-----------------------------------------------------------------------
E---0-------0-------0-------0-------2-------2-------3-------3-----------


e-----------------------------------------------------------------------
B---1---------1-----0---------0-----------------------------------------
G---------0---------------0---------------------------------------------
D-------2-------2-------0-------0---------------------------------------
A-----------------------------------------------------------------------
E---3-------3-------3-------3-------------------------------------------


e-----------------------------------------------------------------------
B-------------3-----1---------1-----1---------1-----0---------0---------
G---------0---------------0---------------0---------------0-------------
D-------4-------4-------0-------0-------2-------2-------0-------0-------
A-----------------------------------------------------------------------
E---0-------0-------2-------2-------3-------3-------3-------3-----------


e---------0h2-----------------------------------------------------------
B-------------1---0-----0---------0-----0---------0---------------------
G-----------------------------0---------------0-------------------------
D-------0-------0-------0-------0-------0-------0-----------------------
A-----------------------------------------------------------------------
E---2---------------3-------3-------3-------3---------------------------

 


DOWNLOAD THIS TAB IN GUITAR PRO



  • click 'Free Download'
  • add your e-mail address
  • you will get an e-mail with your download links (in a few seconds)
  • download the Guitar Pro 6 tab + GP5 + PDF for free
  • and that's all ...


Guitar Pro: a complete workshop for guitarists at an affordable price