20161003

ELVIS PRESLEY LOVE ME TENDER TAB (FINGERSTYLE GUITAR COVER BY KYÖSTI RAUTIO)

Nice and easy fingerstyle guitar cover of Love Me Tender played by Kyösti Rautio.
Standard tuning!
Download the Guitar Pro Tab below.



LOVE ME TENDER FINGERSTYLE TAB

GP5 + GP6 + PDF >>

Part 1

e-------3-------3-------3-------3---------------------------------------
B-------3-------3-------3-------3---------------------------------------
G-------0-------0-------0-------0---------------------------------------
D-----------0---------------0-------------------------------------------
A-----------------------------------------------------------------------
E---3---------------3---------------------------------------------------


e-------3---2---3-/-5~------5~------3---2---0---2---3-----------3-------
B---3-------------------5-----------1-------1-----------3-------3-------
G-----------------------------------2-------2-----------0-------0-------
D-----------------------------------0-----------------------0-----------
A-----------2-------4-----------------------0---------------------------
E---3-----------------------5-----------------------3-------------------


e-------3---2---3-/-5~------5~------3---2---0---2---3-------3-----------
B---3-------------------5-----------1-------1---------3---3-------------
G-----------------------------------2-------2-----------0---------------
D-----------------------------------0-----------------------------------
A-----------2-------4-----------------------0---------------------------
E---3-----------------------5-----------------------3-------------------



e---7----7---7---7---7---7---7--------------------------7-------7-------
B---8--------7-------8-------8-------12---10---8---10-----8---8---------
G---7--------8-------9-------7-------9---------8------------7-----------
D-----------------------------------------------------------------------
A---10-------9-------7----------------------------------10--------------
E----------------------------10------8---------8------------------------


e---7.---7.--8---7.-----------------------------------------------------
B---8.---7.--9-------10~------10-------8---7---5---7--------------------
G---7.---8.--7------------9------------5-------5------------------------
D--------------------------------------0--------------------------------
A---10.--9.--7---------------------------------0------------------------
E--------------------9--------------------------------------------------




DOWNLOAD THE COMPLETE TAB HERE
 
  • click 'Free Download'
  • add your e-mail address
  • you will get an e-mail with your download links (in a few seconds)
  • download the Guitar Pro 6 tab + GP5 + PDF for free
  • and that's all ...


Guitar Pro: a complete workshop for guitarists at an affordable price