20161230

JOE BONAMASSA BRIDGE TO BETTER DAYS TAB (GUITAR SOLO, LIVE)

Joe Bonamassa plays a brilliant guitar solo from 2:03 to 3:44
On YouTube: 'Joe Bonamassa - Bridge To Better Days (Arhus Denmark - July 2009)'
Download the GP5, GP6 and PDF files below.



JOE BONAMASSA BRIDGE TO BETTER DAYS SOLO TAB

GP5 + GP6 + PDF >>

e-------------5-----------------5---------------------------------------
B-------------5-----------------5--------------5/7-x-5-5----------------
G--------------------------------------------------x--------------------
D----5-7~-------7~-----5-7~-------7~-----7p5---5/7-x-5-5---4---4-5-5-6-6
A--0--------0--------0--------0--------0-----7--------------------------
E--------------------------------------------------------x-2---2-3-3-4-4
   x        x        x        x        x


e-------------5-----------------5---------------------------------------
B-------------5-----------------5--------------5/7-x-5-5----------------
G--------------------------------------------------x--------------------
D----5-7~-------7~-----5-7~-------7~-----7p5---5/7-x-5-5---4---4-5-5-6-6
A--0--------0--------0--------0--------0-----7--------------------------
E--------------------------------------------------------x-2---2-3-3-4-4
   x        x        x        x        x


e-------------5-----------------5---------------------------------------
B-------------5-----------------5--------------5/7-x-5-5----------------
G--------------------------------------------------x--------------------
D----5-7~-------7~-----5-7~-------7~-----7p5---5/7-x-5-5---4---4-5-5-6-6
A--0--------0--------0--------0--------0-----7--------------------------
E--------------------------------------------------------x-2---2-3-3-4-4
   x        x        x        x        x




e-------------5-----------------5---------------------------------------
B-------------5-----------------5--------------5/7-x-5-5----------------
G--------------------------------------------------x--------------------
D----5-7~-------7~-----5-7~-------7~-----7p5---5/7-x-5-5---4---4-5-5-6-6
A--0--------0--------0--------0--------0-----7--------------------------
E--------------------------------------------------------x-2---2-3-3-4-4
   x        x        x        x        x


e-----------------------------------------------------------------------
B-------------------6'-------------------8-8-/10-10---------------------
G---5-7~----7~--5-7-----7---5-5-7-7-/9-9------------12/14---------------
D-------------------------7---------------------------------------------
A-----------------------------------------------------------------------
E-----------------------------------------------------------------------


e----------------15-15--------------------------------------------------
B---13--15(17)---------(17)-(15)-13'------------------------------------
G-----14-----------------------------14-14~-----------------------------
D-----------------------------------------------------------------------
A-----------------------------------------------------------------------
E-----------------------------------------------------------------------


e-----------------------------------------------------------------------
B-----------------------------------------------------------------------
G---------12-12-------------------12-12--12-12--------------------------
D---12-14------\12-10-12--10-12/14-----14-----\12-10-12-----------------
A-----------------------12-----------------------------12~---x----------
E-----------------------------------------------------------------------




DOWNLOAD THIS TAB IN GUITAR PRO



  • click 'Free Download'
  • add your e-mail address
  • you will get an e-mail with your download links (in a few seconds)
  • download the Guitar Pro 6 tab + GP5 + PDF for free
  • and that's all ...


Guitar Pro: a complete workshop for guitarists at an affordable price