20170204

SNATAM KAUR RA MA DA SA TAB (ACOUSTIC GUITAR)


Snatam Kaur - Ra Ma Da Sa relaxing meditation mantra.
Minimal - but very nice - guitar playing in the background from about 0:40 on.
Download the PDF and GP files below.



SNATAM KAUR RA MA DA SA TAB

GP5 + GP6 + PDF >>

Verse

e---------------3-----------------------3-------------------------------
B-----------3-------3---------------3-------3---------------------------
G-------5---------------5-------5---------------5-----------------------
D---5-----------------------5-------------------------------------------
A-----------------------------------------------------------------------
E-----------------------------------------------------------------------


e-------------3-----------------------3-----------------------3---------
B---------3-------3---------------3-------3---------------3-------3-----
G-----5---------------5-------5---------------5-------5---------------5-
D-------------------------5-----------------------5---------------------
A-0---------------------------------------------------------------------
E-----------------------------------------------------------------------


e---------------3-----------------------3-------------------------------
B-----------3-------3---------------3-------3---------------------------
G-------5---------------5-------5---------------5-----------------------
D---5-----------------------5-------------------------------------------
A-----------------------------------------------------------------------
E-----------------------------------------------------------------------



e-------------3-----------------------3-----------------------3---------
B---------3-------3---------------3-------3---------------3-------3-----
G-----5---------------5-------5---------------5-------5---------------5-
D-------------------------5-----------------------5---------------------
A-0---------------------------------------------------------------------
E-----------------------------------------------------------------------



Chorus

e---------------3-----------------------0-------------------------------
B-----------3-------3-----------------------1---------------------------
G-------5---------------5-----------2-----------2-----------------------
D---3---------------------------2---------------------------------------
A---------------------------0-------------------------------------------
E-----------------------------------------------------------------------


e-------------3-----------------------3-----------------------3---------
B---------0-------0---------------1-------1---------------1-------1-----
G-----0---------------0-------2---------------0-------2---------------0-
D-------------------------3-----------------------3---------------------
A-----------------------------------------------------------------------
E-3---------------------------------------------------------------------


e---------------3-----------------------0-------------------------------
B-----------3-------3-----------------------1---------------------------
G-------5---------------5-----------2-----------2-----------------------
D---3---------------------------2---------------------------------------
A---------------------------0-------------------------------------------
E-----------------------------------------------------------------------


e-------------3-----------------------3-----------------------3---------
B---------0-------0---------------1-------1---------------1-------1-----
G-----0---------------0-------2---------------0-------2---------------0-
D-------------------------3-----------------------3---------------------
A-----------------------------------------------------------------------
E-3---------------------------------------------------------------------


e---------------3-----------------------0-------------------------------
B-----------3-------3-----------------------1---------------------------
G-------5---------------5-----------2-----------2-----------------------
D---3---------------------------2---------------------------------------
A---------------------------0-------------------------------------------
E-----------------------------------------------------------------------


e-------------3-----------------------3-----------------------3---------
B---------0-------0---------------1-------1---------------1-------1-----
G-----0---------------0-------2---------------0-------2---------------0-
D-------------------------3-----------------------3---------------------
A-----------------------------------------------------------------------
E-3---------------------------------------------------------------------


e---------------3-----------------------0-------------------------------
B-----------3-------3-----------------------1---------------------------
G-------5---------------5-----------2-----------2-----------------------
D---3---------------------------2---------------------------------------
A---------------------------0-------------------------------------------
E-----------------------------------------------------------------------


e---------------3-----------------------3-------------------------------
B-----------0-------0---------------1-------1---------------------------
G-------0---------------0-------2---------------0-----------------------
D---------------------------3-------------------------------------------
A-----------------------------------------------------------------------
E---3-------------------------------------------------------------------


e---------------3-----------------------3-------------------------------
B-------------------1-----------------------1---------------------------
G-----------0-----------0-----------0-----------0-----------------------
D-------2-----------------------2---------------------------------------
A---3-----------------------3-------------------------------------------
E-----------------------------------------------------------------------





DOWNLOAD THIS TAB IN GUITAR PRO



  • click 'Free Download'
  • add your e-mail address
  • you will get an e-mail with your download links (in a few seconds)
  • download the Guitar Pro 6 tab + GP5 + PDF for free
  • and that's all ...


Guitar Pro: a complete workshop for guitarists at an affordable price