20170309

LOS LONELY BOYS HEAVEN TAB (INTRO SOLO)


Los Lonely Boys - Heaven starts with a cool guitar solo until 0:30.
Half-step down tuning and use the neck pick-up on your Fender Stratocaster.
Download the Guitar Pro 6, GP5 and PDF files below.



LOS LONELY BOYS HEAVEN TAB

GP5 + GP6 + PDF >>

Intro solo

eb---7~----7.---------8/10-10-10-10-10-10-10\8----8.--------------------
Bb---8~----8.--------10/12-12-12-12-12-12-12\10---10.-------------------
Gb----------------------------------------------------------------------
Db----------------------------------------------------------------------
Ab----------------------------------------------------------------------
Eb----------------------------------------------------------------------


eb-----12.--12.--12.--12.--12-12\10----10.------------------------------
Bb-----13.--13.--13.--13.--13-13\12-12-12.------------------------------
Gb----------------------------------------------------------------------
Db----------------------------------------------------------------------
Ab----------------------------------------------------------------------
Eb----------------------------------------------------------------------


eb---10.--10.--10.--10-10\8-----8.---10.--12.--12.--10-10-x-8--x--------
Bb---12.--12.--12.--12-12\10-10-10.--12.--13.--13.--12-12-x-10-x--------
Gb----------------------------------------------------------------------
Db----------------------------------------------------------------------
Ab----------------------------------------------------------------------
Eb----------------------------------------------------------------------



eb---7~----7.---------8/10-10-10-10-10-10-10\8----8.--------------------
Bb---8~----8.--------10/12-12-12-12-12-12-12\10---10.-------------------
Gb----------------------------------------------------------------------
Db----------------------------------------------------------------------
Ab----------------------------------------------------------------------
Eb----------------------------------------------------------------------


eb-----12.--12.--12.--12.--12-12\10----10.------------------------------
Bb-----13.--13.--13.--13.--13-13\12-12-12.------------------------------
Gb----------------------------------------------------------------------
Db----------------------------------------------------------------------
Ab----------------------------------------------------------------------
Eb----------------------------------------------------------------------


eb---10.--10.--10.--10-10\8-----8.---10.--12.--12.--10-10-x-8--x--------
Bb---12.--12.--12.--12-12\10-10-10.--12.--13.--13.--12-12-x-10-x--------
Gb----------------------------------------------------------------------
Db----------------------------------------------------------------------
Ab----------------------------------------------------------------------
Eb----------------------------------------------------------------------


eb---7~----7.-----------------------------------------------------------
Bb---8~----8.------10(12)-10p8----8~-----8-8~---------------------------
Gb------------------------------9--------------9.-----------------------
Db----------------------------------------------------------------------
Ab----------------------------------------------------------------------
Eb----------------------------------------------------------------------


eb---10(12)---10-------------------------------7-8--7h8p7-----7---------
Bb---x-------------10(12)-10p8-8~--------8h10--------------10-----------
Gb------------------------------------9---------------------------------
Db----------------------------------------------------------------------
Ab----------------------------------------------------------------------
Eb----------------------------------------------------------------------


eb----------------------------------------------------------------------
Bb---10(12)(10)--p8------8~--8------10--x------8---\--------------------
Gb------------------9--x-------9--x-------9--x--------------------------
Db----------------------------------------------------------------------
Ab----------------------------------------------------------------------
Eb----------------------------------------------------------------------




DOWNLOAD THIS TAB IN GUITAR PRO



  • click 'Free Download'
  • add your e-mail address
  • you will get an e-mail with your download links (in a few seconds)
  • download the Guitar Pro 6 tab + GP5 + PDF for free
  • and that's all ...


Guitar Pro: a complete workshop for guitarists at an affordable price