20170515

SCORPIONS I'M LEAVING YOU TAB (RHYTHM GUITAR LINE)


Scorpions - I'm Leaving You rhythm guitar cover played by ScorpionKing.
Download the Guitar Pro 6, GP5 and PDF files below.



SCORPIONS I'M LEAVING YOU TAB

GP5 + GP6 + PDF >>

Intro

e-----------------------------------------------------------------------
B-----------------------------------------------------------------------
G-----------------------------------------------------------------------
D-----2-0---------2-0---0---7/9-------2-0---------2-0---0---9---\-------
A---------3~----------3-----5/7-----------3~----------3-----7---\-------
E---0-----------------------------0-------------------------------------


e-----------------------------------------------------------------------
B-----------------------------------------------------------------------
G-----------------------------------------------------------------------
D-------2-0---------2-0---0---7/9-------2-0---------2-0---0---9---\-----
A-----------3~----------3-----5/7-----------3~----------3-----7---\-----
E---0-------------------------------0-----------------------------------


e-----------------------------------------------------------------------
B-----------------------------------------------------------------------
G-----------------------------------------------------------------------
D-------2-0---------2-0---0---7/9-------2-0---------2-0---0---9---\-----
A-----------3~----------3-----5/7-----------3~----------3-----7---\-----
E---0-------------------------------0-----------------------------------



e-----------------------------------------------------------------------
B-----------------------------------------------------------------------
G-----------------------------------------------------------------------
D-------2-0---------2-0---0---7/9-------2-0---------2-0---0-------------
A-----------3~----------3-----5/7-----------3~----------3---------------
E---0-------------------------------0-----------------------------------


Verse

e-----------------------------------------------------------------------
B-----------------------------------------------------------------------
G-----------------------------------------------------------------------
D---9---\-5-------------------------------------------------------------
A---7---\-3-------------------------------------------------------------
E-----------------------------------------------------------------------


e-----------------------------------------------------------------------
B--------------------------------------------------8-8-8-8-7.-----------
G--------------------------------------------------7-7-7-7-7.-----------
D--------------------------------------------------7-7-7-7-7.-----------
A-----------------------------------------------------------------------
E-----------------------------------------------------------------------


Chorus

e-----------------------------------------------------------------------
B-------------------------8.--8-7.--------------------------------------
G---9---\-5---------7.--7-7.--7-7.--------------------------------------
D---9---\-5---------7.--7-7.--7-7.--------------------------------------
A---7---\-3---------5.--5-----------------------------------------------

E-----------------------------------------------------------------------




DOWNLOAD THE COMPLETE TAB HERE



  • click 'Free Download'
  • add your e-mail address
  • you will get an e-mail with your download links (in a few seconds)
  • download the Guitar Pro 6 tab + GP5 + PDF for free
  • and that's all ...


Guitar Pro: a complete workshop for guitarists at an affordable price